  0
SECTION
  2
HEADER
  9
$ACADVER
  1
AC1015
  9
$ACADMAINTVER
 70
    20
  9
$DWGCODEPAGE
  3
ANSI_1252
  9
$INSBASE
 10
0.0
 20
0.0
 30
0.0
  9
$EXTMIN
 10
2.0
 20
-10.94141523460678
 30
-0.0000000000000565
  9
$EXTMAX
 10
1189.0
 20
840.0
 30
0.0000000000000015
  9
$LIMMIN
 10
0.0
 20
0.0
  9
$LIMMAX
 10
420.0
 20
297.0
  9
$ORTHOMODE
 70
     1
  9
$REGENMODE
 70
     1
  9
$FILLMODE
 70
     1
  9
$QTEXTMODE
 70
     0
  9
$MIRRTEXT
 70
     1
  9
$LTSCALE
 40
12.7
  9
$ATTMODE
 70
     1
  9
$TEXTSIZE
 40
3.5
  9
$TRACEWID
 40
1.0
  9
$TEXTSTYLE
  7
ONSHAPE-STANDARD
  9
$CLAYER
  8
0
  9
$CELTYPE
  6
BYLAYER
  9
$CECOLOR
 62
   256
  9
$CELTSCALE
 40
1.0
  9
$DISPSILH
 70
     0
  9
$DIMSCALE
 40
1.0
  9
$DIMASZ
 40
2.5
  9
$DIMEXO
 40
0.625
  9
$DIMDLI
 40
3.75
  9
$DIMRND
 40
0.0
  9
$DIMDLE
 40
0.0
  9
$DIMEXE
 40
1.25
  9
$DIMTP
 40
0.0
  9
$DIMTM
 40
0.0
  9
$DIMTXT
 40
3.5
  9
$DIMCEN
 40
2.5
  9
$DIMTSZ
 40
0.0
  9
$DIMTOL
 70
     0
  9
$DIMLIM
 70
     0
  9
$DIMTIH
 70
     0
  9
$DIMTOH
 70
     0
  9
$DIMSE1
 70
     0
  9
$DIMSE2
 70
     0
  9
$DIMTAD
 70
     1
  9
$DIMZIN
 70
     8
  9
$DIMBLK
  1

  9
$DIMASO
 70
     1
  9
$DIMSHO
 70
     1
  9
$DIMPOST
  1

  9
$DIMAPOST
  1

  9
$DIMALT
 70
     0
  9
$DIMALTD
 70
     3
  9
$DIMALTF
 40
0.03937
  9
$DIMLFAC
 40
1.0
  9
$DIMTOFL
 70
     1
  9
$DIMTVP
 40
0.0
  9
$DIMTIX
 70
     0
  9
$DIMSOXD
 70
     0
  9
$DIMSAH
 70
     0
  9
$DIMBLK1
  1

  9
$DIMBLK2
  1

  9
$DIMSTYLE
  2
ONSHAPE-ISO-25
  9
$DIMCLRD
 70
     7
  9
$DIMCLRE
 70
     7
  9
$DIMCLRT
 70
     7
  9
$DIMTFAC
 40
1.0
  9
$DIMGAP
 40
0.625
  9
$DIMJUST
 70
     0
  9
$DIMSD1
 70
     0
  9
$DIMSD2
 70
     0
  9
$DIMTOLJ
 70
     0
  9
$DIMTZIN
 70
     8
  9
$DIMALTZ
 70
     8
  9
$DIMALTTZ
 70
     0
  9
$DIMUPT
 70
     1
  9
$DIMDEC
 70
     2
  9
$DIMTDEC
 70
     2
  9
$DIMALTU
 70
     2
  9
$DIMALTTD
 70
     3
  9
$DIMTXSTY
  7
ONSHAPE-STANDARD-DIMENSION
  9
$DIMAUNIT
 70
     0
  9
$DIMADEC
 70
     1
  9
$DIMALTRND
 40
0.0
  9
$DIMAZIN
 70
     0
  9
$DIMDSEP
 70
    46
  9
$DIMATFIT
 70
     3
  9
$DIMFRAC
 70
     0
  9
$DIMLDRBLK
  1

  9
$DIMLUNIT
 70
     2
  9
$DIMLWD
 70
    13
  9
$DIMLWE
 70
    13
  9
$DIMTMOVE
 70
     0
  9
$LUNITS
 70
     2
  9
$LUPREC
 70
     4
  9
$SKETCHINC
 40
1.0
  9
$FILLETRAD
 40
10.0
  9
$AUNITS
 70
     0
  9
$AUPREC
 70
     0
  9
$MENU
  1
.
  9
$ELEVATION
 40
0.0
  9
$PELEVATION
 40
0.0
  9
$THICKNESS
 40
0.0
  9
$LIMCHECK
 70
     0
  9
$CHAMFERA
 40
0.0
  9
$CHAMFERB
 40
0.0
  9
$CHAMFERC
 40
0.0
  9
$CHAMFERD
 40
0.0
  9
$SKPOLY
 70
     0
  9
$TDCREATE
 40
2458616.183090278
  9
$TDUCREATE
 40
2458616.391423611
  9
$TDUPDATE
 40
2458615.987465278
  9
$TDUUPDATE
 40
2458616.195798611
  9
$TDINDWG
 40
0.0122800926
  9
$TDUSRTIMER
 40
0.0122800926
  9
$USRTIMER
 70
     1
  9
$ANGBASE
 50
0.0
  9
$ANGDIR
 70
     0
  9
$PDMODE
 70
     0
  9
$PDSIZE
 40
0.0
  9
$PLINEWID
 40
0.0
  9
$SPLFRAME
 70
     0
  9
$SPLINETYPE
 70
     6
  9
$SPLINESEGS
 70
     8
  9
$HANDSEED
  5
767
  9
$SURFTAB1
 70
     6
  9
$SURFTAB2
 70
     6
  9
$SURFTYPE
 70
     6
  9
$SURFU
 70
     6
  9
$SURFV
 70
     6
  9
$UCSBASE
  2

  9
$UCSNAME
  2

  9
$UCSORG
 10
0.0
 20
0.0
 30
0.0
  9
$UCSXDIR
 10
1.0
 20
0.0
 30
0.0
  9
$UCSYDIR
 10
0.0
 20
1.0
 30
0.0
  9
$UCSORTHOREF
  2

  9
$UCSORTHOVIEW
 70
     0
  9
$UCSORGTOP
 10
0.0
 20
0.0
 30
0.0
  9
$UCSORGBOTTOM
 10
0.0
 20
0.0
 30
0.0
  9
$UCSORGLEFT
 10
0.0
 20
0.0
 30
0.0
  9
$UCSORGRIGHT
 10
0.0
 20
0.0
 30
0.0
  9
$UCSORGFRONT
 10
0.0
 20
0.0
 30
0.0
  9
$UCSORGBACK
 10
0.0
 20
0.0
 30
0.0
  9
$PUCSBASE
  2

  9
$PUCSNAME
  2

  9
$PUCSORG
 10
0.0
 20
0.0
 30
0.0
  9
$PUCSXDIR
 10
1.0
 20
0.0
 30
0.0
  9
$PUCSYDIR
 10
0.0
 20
1.0
 30
0.0
  9
$PUCSORTHOREF
  2

  9
$PUCSORTHOVIEW
 70
     0
  9
$PUCSORGTOP
 10
0.0
 20
0.0
 30
0.0
  9
$PUCSORGBOTTOM
 10
0.0
 20
0.0
 30
0.0
  9
$PUCSORGLEFT
 10
0.0
 20
0.0
 30
0.0
  9
$PUCSORGRIGHT
 10
0.0
 20
0.0
 30
0.0
  9
$PUCSORGFRONT
 10
0.0
 20
0.0
 30
0.0
  9
$PUCSORGBACK
 10
0.0
 20
0.0
 30
0.0
  9
$USERI1
 70
     0
  9
$USERI2
 70
     0
  9
$USERI3
 70
     0
  9
$USERI4
 70
     0
  9
$USERI5
 70
     0
  9
$USERR1
 40
0.0
  9
$USERR2
 40
0.0
  9
$USERR3
 40
0.0
  9
$USERR4
 40
0.0
  9
$USERR5
 40
0.0
  9
$WORLDVIEW
 70
     1
  9
$SHADEDGE
 70
     3
  9
$SHADEDIF
 70
    70
  9
$TILEMODE
 70
     1
  9
$MAXACTVP
 70
    64
  9
$PINSBASE
 10
0.0
 20
0.0
 30
0.0
  9
$PLIMCHECK
 70
     0
  9
$PEXTMIN
 10
1.000000000000000E+20
 20
1.000000000000000E+20
 30
1.000000000000000E+20
  9
$PEXTMAX
 10
-1.000000000000000E+20
 20
-1.000000000000000E+20
 30
-1.000000000000000E+20
  9
$PLIMMIN
 10
0.0
 20
0.0
  9
$PLIMMAX
 10
420.0
 20
297.0
  9
$UNITMODE
 70
     0
  9
$VISRETAIN
 70
     1
  9
$PLINEGEN
 70
     0
  9
$PSLTSCALE
 70
     1
  9
$TREEDEPTH
 70
  3020
  9
$CMLSTYLE
  2
STANDARD
  9
$CMLJUST
 70
     0
  9
$CMLSCALE
 40
20.0
  9
$PROXYGRAPHICS
 70
     1
  9
$MEASUREMENT
 70
     1
  9
$CELWEIGHT
370
    -1
  9
$ENDCAPS
280
     0
  9
$JOINSTYLE
280
     0
  9
$LWDISPLAY
290
     1
  9
$INSUNITS
 70
     4
  9
$HYPERLINKBASE
  1

  9
$STYLESHEET
  1

  9
$XEDIT
290
     1
  9
$CEPSNTYPE
380
     0
  9
$PSTYLEMODE
290
     1
  9
$FINGERPRINTGUID
  2
{1540BB3F-3E2F-9610-52A1-DD3419A4CE4D}
  9
$VERSIONGUID
  2
{F7690322-0FEF-B048-8F9A-ACAB48F8F272}
  9
$EXTNAMES
290
     1
  9
$PSVPSCALE
 40
0.0
  9
$OLESTARTUP
290
     0
  0
ENDSEC
  0
SECTION
  2
CLASSES
  0
CLASS
  1
ACDBDICTIONARYWDFLT
  2
AcDbDictionaryWithDefault
  3
ObjectDBX Classes
 90
        0
280
     0
281
     0
  0
CLASS
  1
VISUALSTYLE
  2
AcDbVisualStyle
  3
ObjectDBX Classes
 90
     4095
280
     0
281
     0
  0
CLASS
  1
MATERIAL
  2
AcDbMaterial
  3
ObjectDBX Classes
 90
     1153
280
     0
281
     0
  0
CLASS
  1
SCALE
  2
AcDbScale
  3
ObjectDBX Classes
 90
     1153
280
     0
281
     0
  0
CLASS
  1
SUN
  2
AcDbSun
  3
SCENEOE
 90
    33921
280
     0
281
     0
  0
CLASS
  1
TABLESTYLE
  2
AcDbTableStyle
  3
ObjectDBX Classes
 90
     4095
280
     0
281
     0
  0
CLASS
  1
DICTIONARYVAR
  2
AcDbDictionaryVar
  3
ObjectDBX Classes
 90
        0
280
     0
281
     0
  0
CLASS
  1
FIELD
  2
AcDbField
  3
ObjectDBX Classes
 90
    33920
280
     0
281
     0
  0
CLASS
  1
FIELDLIST
  2
AcDbFieldList
  3
ObjectDBX Classes
 90
     1152
280
     0
281
     0
  0
CLASS
  1
XRECORD
  2
AcDbXrecord
  3
ObjectDBX Classes
 90
        0
280
     0
281
     0
  0
CLASS
  1
LWPOLYLINE
  2
AcDbPolyline
  3
ObjectDBX Classes
 90
        0
280
     0
281
     1
  0
CLASS
  1
HATCH
  2
AcDbHatch
  3
ObjectDBX Classes
 90
    32768
280
     0
281
     1
  0
CLASS
  1
ACDBPLACEHOLDER
  2
AcDbPlaceHolder
  3
ObjectDBX Classes
 90
        0
280
     0
281
     0
  0
CLASS
  1
LAYOUT
  2
AcDbLayout
  3
ObjectDBX Classes
 90
        0
280
     0
281
     0
  0
CLASS
  1
MLEADERSTYLE
  2
AcDbMLeaderStyle
  3
ACDB_MLEADERSTYLE_CLASS
 90
     4095
280
     0
281
     0
  0
CLASS
  1
ACDBSECTIONVIEWSTYLE
  2
AcDbSectionViewStyle
  3
ObjectDBX Classes
 90
     1025
280
     0
281
     0
  0
CLASS
  1
ACDBDETAILVIEWSTYLE
  2
AcDbDetailViewStyle
  3
ObjectDBX Classes
 90
     1025
280
     0
281
     0
  0
CLASS
  1
SORTENTSTABLE
  2
AcDbSortentsTable
  3
ObjectDBX Classes
 90
        0
280
     0
281
     0
  0
CLASS
  1
CELLSTYLEMAP
  2
AcDbCellStyleMap
  3
ObjectDBX Classes
 90
     1152
280
     0
281
     0
  0
ENDSEC
  0
SECTION
  2
TABLES
  0
TABLE
  2
VPORT
  5
8
330
0
100
AcDbSymbolTable
 70
     1
  0
VPORT
  5
29
330
8
100
AcDbSymbolTableRecord
100
AcDbViewportTableRecord
  2
*ACTIVE
 70
     0
 10
0.0
 20
0.0
 11
1.0
 21
1.0
 12
401.2952141123459
 22
612.9884730478859
 13
0.0
 23
0.0
 14
10.0
 24
10.0
 15
10.0
 25
10.0
 16
0.0
 26
0.0
 36
1.0
 17
0.0
 27
0.0
 37
0.0
 40
1001.909860146285
 41
2.179019384264538
 42
50.0
 43
0.0
 44
0.0
 50
0.0
 51
0.0
 71
     0
 72
   100
 73
     1
 74
     3
 75
     0
 76
     0
 77
     0
 78
     0
281
     0
 65
     1
110
0.0
120
0.0
130
0.0
111
1.0
121
0.0
131
0.0
112
0.0
122
1.0
132
0.0
 79
     0
146
0.0
1001
ACAD_NAV_VCDISPLAY
1070
     3
  0
ENDTAB
  0
TABLE
  2
LTYPE
  5
5
330
0
100
AcDbSymbolTable
 70
     2
  0
LTYPE
  5
14
330
5
100
AcDbSymbolTableRecord
100
AcDbLinetypeTableRecord
  2
BYBLOCK
 70
     0
  3

 72
    65
 73
     0
 40
0.0
  0
LTYPE
  5
15
330
5
100
AcDbSymbolTableRecord
100
AcDbLinetypeTableRecord
  2
BYLAYER
 70
     0
  3

 72
    65
 73
     0
 40
0.0
  0
LTYPE
  5
16
330
5
100
AcDbSymbolTableRecord
100
AcDbLinetypeTableRecord
  2
CONTINUOUS
 70
     0
  3
Solid line
 72
    65
 73
     0
 40
0.0
  0
ENDTAB
  0
TABLE
  2
LAYER
  5
2
330
0
100
AcDbSymbolTable
 70
     8
  0
LAYER
  5
10
102
{ACAD_XDICTIONARY
360
6CF
102
}
330
2
100
AcDbSymbolTableRecord
100
AcDbLayerTableRecord
  2
0
 70
     0
 62
     7
  6
CONTINUOUS
370
    -3
390
2EA
  0
LAYER
  5
E7
102
{ACAD_XDICTIONARY
360
6D1
102
}
330
2
100
AcDbSymbolTableRecord
100
AcDbLayerTableRecord
  2
TITLE_BLOCK
 70
     0
 62
     7
  6
CONTINUOUS
370
    -3
390
2EA
  0
LAYER
  5
181
102
{ACAD_XDICTIONARY
360
6D3
102
}
330
2
100
AcDbSymbolTableRecord
100
AcDbLayerTableRecord
  2
ANNOTATION_TEXT
 70
     0
 62
     7
  6
CONTINUOUS
370
    -3
390
2EA
  0
LAYER
  5
1A2
102
{ACAD_XDICTIONARY
360
6D5
102
}
330
2
100
AcDbSymbolTableRecord
100
AcDbLayerTableRecord
  2
VISIBLE
 70
     0
 62
     7
  6
CONTINUOUS
370
    -3
390
2EA
  0
LAYER
  5
349
102
{ACAD_XDICTIONARY
360
6D7
102
}
330
2
100
AcDbSymbolTableRecord
100
AcDbLayerTableRecord
  2
pocket
 70
     0
 62
     1
  6
CONTINUOUS
370
    -3
390
2EA
1001
AcAecLayerStandard
1000

1000

1001
AcCmTransparency
1071
        0
  0
ENDTAB
  0
TABLE
  2
STYLE
  5
3
330
0
100
AcDbSymbolTable
 70
    19
  0
STYLE
  5
11
330
3
100
AcDbSymbolTableRecord
100
AcDbTextStyleTableRecord
  2
STANDARD
 70
     0
 40
0.0
 41
1.0
 50
0.0
 71
     0
 42
3.5
  3
txt
  4

  0
STYLE
  5
6E
330
3
100
AcDbSymbolTableRecord
100
AcDbTextStyleTableRecord
  2
ONSHAPE-STANDARD
 70
     0
 40
0.0
 41
1.0
 50
0.0
 71
     0
 42
3.5
  3
NotoSans-Regular.ttf
  4

1001
ACAD
1000
Noto Sans
1071
        0
  0
STYLE
  5
70
330
3
100
AcDbSymbolTableRecord
100
AcDbTextStyleTableRecord
  2
ONSHAPE-STANDARD-DIMENSION
 70
     0
 40
0.0
 41
1.0
 50
0.0
 71
     0
 42
3.5
  3

  4

1001
ACAD
1000
Noto Sans
1071
        0
  0
STYLE
  5
11C
330
3
100
AcDbSymbolTableRecord
100
AcDbTextStyleTableRecord
  2
ONSHAPE-STANDARD-FIELDS
 70
     0
 40
0.0
 41
1.0
 50
0.0
 71
     0
 42
3.5
  3

  4

1001
ACAD
1000
Noto Sans
1071
        0
  0
STYLE
  5
182
330
3
100
AcDbSymbolTableRecord
100
AcDbTextStyleTableRecord
  2
ONSHAPE-STANDARD-VIEW-LABE
 70
     0
 40
3.5
 41
1.0
 50
0.0
 71
     0
 42
3.5
  3
NotoSans-Regular.ttf
  4

1001
ACAD
1000
Noto Sans
1071
        0
  0
STYLE
  5
280
330
3
100
AcDbSymbolTableRecord
100
AcDbTextStyleTableRecord
  2
ONSHAPE-STANDARD-GTOLERANC
 70
     0
 40
0.0
 41
1.0
 50
0.0
 71
     0
 42
3.5
  3

  4

1001
ACAD
1000
Noto Sans
1071
        0
  0
ENDTAB
  0
TABLE
  2
VIEW
  5
6
330
0
100
AcDbSymbolTable
 70
     0
  0
ENDTAB
  0
TABLE
  2
UCS
  5
7
330
0
100
AcDbSymbolTable
 70
     0
  0
ENDTAB
  0
TABLE
  2
APPID
  5
9
330
0
100
AcDbSymbolTable
 70
     5
  0
APPID
  5
12
330
9
100
AcDbSymbolTableRecord
100
AcDbRegAppTableRecord
  2
ACAD
 70
     0
  0
APPID
  5
34A
330
9
100
AcDbSymbolTableRecord
100
AcDbRegAppTableRecord
  2
AcAecLayerStandard
 70
     0
  0
APPID
  5
34B
330
9
100
AcDbSymbolTableRecord
100
AcDbRegAppTableRecord
  2
AcCmTransparency
 70
     0
  0
APPID
  5
534
330
9
100
AcDbSymbolTableRecord
100
AcDbRegAppTableRecord
  2
ACAD_NAV_VCDISPLAY
 70
     0
  0
APPID
  5
75E
330
9
100
AcDbSymbolTableRecord
100
AcDbRegAppTableRecord
  2
ACAD_MLEADERVER
 70
     0
  0
ENDTAB
  0
TABLE
  2
DIMSTYLE
  5
A
330
0
100
AcDbSymbolTable
 70
    19
100
AcDbDimStyleTable
 71
     1
340
6F
  0
DIMSTYLE
105
6F
330
A
100
AcDbSymbolTableRecord
100
AcDbDimStyleTableRecord
  2
ONSHAPE-ISO-25
 70
     0
 41
2.5
 42
0.625
 43
3.75
 44
1.25
 73
     0
 74
     0
 77
     1
 78
     8
140
3.5
141
2.5
143
0.03937
147
0.625
171
     3
172
     1
176
     7
177
     7
178
     7
179
     1
271
     2
272
     2
274
     3
283
     0
284
     8
285
     8
288
     1
340
70
  0
DIMSTYLE
105
28A
330
A
100
AcDbSymbolTableRecord
100
AcDbDimStyleTableRecord
  2
ISO
 70
     0
  4
"
 41
3.5
 42
1.0
 43
10.0
 44
1.0
 47
0.1
 48
0.1
 73
     0
 74
     0
 77
     1
 78
     8
140
3.5
141
0.0
143
0.03937
146
0.71
147
1.5
171
     3
172
     1
176
     7
177
     7
178
     7
271
     2
272
     3
274
     3
283
     0
284
     8
285
     8
288
     1
340
11
  0
ENDTAB
  0
TABLE
  2
BLOCK_RECORD
  5
1
330
0
100
AcDbSymbolTable
 70
     1
  0
BLOCK_RECORD
  5
1F
102
{ACAD_XDICTIONARY
360
3DB
102
}
330
1
100
AcDbSymbolTableRecord
100
AcDbBlockTableRecord
  2
*MODEL_SPACE
340
2F5
  0
BLOCK_RECORD
  5
1B
330
1
100
AcDbSymbolTableRecord
100
AcDbBlockTableRecord
  2
*PAPER_SPACE
340
2F6
  0
ENDTAB
  0
ENDSEC
  0
SECTION
  2
BLOCKS
  0
BLOCK
  5
20
330
1F
100
AcDbEntity
  8
0
100
AcDbBlockBegin
  2
*MODEL_SPACE
 70
     0
 10
0.0
 20
0.0
 30
0.0
  3
*MODEL_SPACE
  1

  0
ENDBLK
  5
21
330
1F
100
AcDbEntity
  8
0
100
AcDbBlockEnd
  0
BLOCK
  5
1C
330
1B
100
AcDbEntity
 67
     1
  8
0
100
AcDbBlockBegin
  2
*PAPER_SPACE
 70
     0
 10
0.0
 20
0.0
 30
0.0
  3
*PAPER_SPACE
  1

  0
ENDBLK
  5
1D
330
1B
100
AcDbEntity
 67
     1
  8
0
100
AcDbBlockEnd
  0
ENDSEC
  0
SECTION
  2
ENTITIES
  0
MTEXT
  5
124
330
1F
100
AcDbEntity
  8
TITLE_BLOCK
100
AcDbMText
 10
985.8500000000001
 20
64.44999999999999
 30
0.0
 40
1.706879999999999
 41
25.39999999999998
 71
     5
 72
     1
  1
 
  7
ONSHAPE-STANDARD-FIELDS
 73
     1
 44
1.0
1001
ACAD
1000
MTEXTBEGIN
1070
    73
1070
     1
1070
    44
1040
1.0
1070
    74
1070
     0
1000
MTEXTEND
1000
ACAD_MTEXT_DEFINED_HEIGHT_BEGIN
1070
    46
1040
7.61999999999999
1000
ACAD_MTEXT_DEFINED_HEIGHT_END
  0
MTEXT
  5
125
330
1F
100
AcDbEntity
  8
TITLE_BLOCK
100
AcDbMText
 10
1031.8875
 20
64.44999999999999
 30
0.0
 40
1.706879999999999
 41
15.875
 71
     5
 72
     1
  1
 
  7
ONSHAPE-STANDARD-FIELDS
 73
     1
 44
1.0
1001
ACAD
1000
MTEXTBEGIN
1070
    73
1070
     1
1070
    44
1040
1.0
1070
    74
1070
     0
1000
MTEXTEND
1000
ACAD_MTEXT_DEFINED_HEIGHT_BEGIN
1070
    46
1040
7.61999999999999
1000
ACAD_MTEXT_DEFINED_HEIGHT_END
  0
MTEXT
  5
133
330
1F
100
AcDbEntity
  8
TITLE_BLOCK
100
AcDbMText
 10
962.0375000000001
 20
49.20999999999999
 30
0.0
 40
3.048
 41
22.22500000000002
 71
     5
 72
     1
  1
 
  7
ONSHAPE-STANDARD-FIELDS
 73
     1
 44
1.0
1001
ACAD
1000
MTEXTBEGIN
1070
    73
1070
     1
1070
    44
1040
1.0
1070
    74
1070
     0
1000
MTEXTEND
1000
ACAD_MTEXT_DEFINED_HEIGHT_BEGIN
1070
    46
1040
7.619999999999997
1000
ACAD_MTEXT_DEFINED_HEIGHT_END
  0
MTEXT
  5
134
330
1F
100
AcDbEntity
  8
TITLE_BLOCK
100
AcDbMText
 10
985.8500000000001
 20
49.20999999999999
 30
0.0
 40
1.706879999999999
 41
25.39999999999998
 71
     5
 72
     1
  1
 
  7
ONSHAPE-STANDARD-FIELDS
 73
     1
 44
1.0
1001
ACAD
1000
MTEXTBEGIN
1070
    73
1070
     1
1070
    44
1040
1.0
1070
    74
1070
     0
1000
MTEXTEND
1000
ACAD_MTEXT_DEFINED_HEIGHT_BEGIN
1070
    46
1040
7.619999999999997
1000
ACAD_MTEXT_DEFINED_HEIGHT_END
  0
MTEXT
  5
135
330
1F
100
AcDbEntity
  8
TITLE_BLOCK
100
AcDbMText
 10
1031.8875
 20
49.20999999999999
 30
0.0
 40
1.706879999999999
 41
15.875
 71
     5
 72
     1
  1
 
  7
ONSHAPE-STANDARD-FIELDS
 73
     1
 44
1.0
1001
ACAD
1000
MTEXTBEGIN
1070
    73
1070
     1
1070
    44
1040
1.0
1070
    74
1070
     0
1000
MTEXTEND
1000
ACAD_MTEXT_DEFINED_HEIGHT_BEGIN
1070
    46
1040
7.619999999999997
1000
ACAD_MTEXT_DEFINED_HEIGHT_END
  0
MTEXT
  5
136
330
1F
100
AcDbEntity
  8
TITLE_BLOCK
100
AcDbMText
 10
962.0375000000001
 20
41.59
 30
0.0
 40
3.048
 41
22.22500000000002
 71
     5
 72
     1
  1
 
  7
ONSHAPE-STANDARD-FIELDS
 73
     1
 44
1.0
1001
ACAD
1000
MTEXTBEGIN
1070
    73
1070
     1
1070
    44
1040
1.0
1070
    74
1070
     0
1000
MTEXTEND
1000
ACAD_MTEXT_DEFINED_HEIGHT_BEGIN
1070
    46
1040
7.619999999999997
1000
ACAD_MTEXT_DEFINED_HEIGHT_END
  0
MTEXT
  5
137
330
1F
100
AcDbEntity
  8
TITLE_BLOCK
100
AcDbMText
 10
985.8500000000001
 20
41.59
 30
0.0
 40
1.706879999999999
 41
25.39999999999998
 71
     5
 72
     1
  1
 
  7
ONSHAPE-STANDARD-FIELDS
 73
     1
 44
1.0
1001
ACAD
1000
MTEXTBEGIN
1070
    73
1070
     1
1070
    44
1040
1.0
1070
    74
1070
     0
1000
MTEXTEND
1000
ACAD_MTEXT_DEFINED_HEIGHT_BEGIN
1070
    46
1040
7.619999999999997
1000
ACAD_MTEXT_DEFINED_HEIGHT_END
  0
MTEXT
  5
138
330
1F
100
AcDbEntity
  8
TITLE_BLOCK
100
AcDbMText
 10
1031.8875
 20
41.59
 30
0.0
 40
1.706879999999999
 41
15.875
 71
     5
 72
     1
  1
 
  7
ONSHAPE-STANDARD-FIELDS
 73
     1
 44
1.0
1001
ACAD
1000
MTEXTBEGIN
1070
    73
1070
     1
1070
    44
1040
1.0
1070
    74
1070
     0
1000
MTEXTEND
1000
ACAD_MTEXT_DEFINED_HEIGHT_BEGIN
1070
    46
1040
7.619999999999997
1000
ACAD_MTEXT_DEFINED_HEIGHT_END
  0
MTEXT
  5
13A
330
1F
100
AcDbEntity
  8
TITLE_BLOCK
100
AcDbMText
 10
973.15
 20
28.89
 30
0.0
 40
3.048
 41
44.45000000000004
 71
     5
 72
     1
  1
 
  7
ONSHAPE-STANDARD-FIELDS
 73
     1
 44
1.0
1001
ACAD
1000
MTEXTBEGIN
1070
    73
1070
     1
1070
    44
1040
1.0
1070
    74
1070
     0
1000
MTEXTEND
1000
ACAD_MTEXT_DEFINED_HEIGHT_BEGIN
1070
    46
1040
17.78
1000
ACAD_MTEXT_DEFINED_HEIGHT_END
  0
MTEXT
  5
13C
330
1F
100
AcDbEntity
  8
TITLE_BLOCK
100
AcDbMText
 10
1017.6
 20
28.89
 30
0.0
 40
3.048
 41
44.45000000000004
 71
     5
 72
     1
  1
 
  7
ONSHAPE-STANDARD-FIELDS
 73
     1
 44
1.0
1001
ACAD
1000
MTEXTBEGIN
1070
    73
1070
     1
1070
    44
1040
1.0
1070
    74
1070
     0
1000
MTEXTEND
1000
ACAD_MTEXT_DEFINED_HEIGHT_BEGIN
1070
    46
1040
17.78
1000
ACAD_MTEXT_DEFINED_HEIGHT_END
  0
MTEXT
  5
176
330
1F
100
AcDbEntity
  8
TITLE_BLOCK
100
AcDbMText
 10
1096.6575
 20
24.1275
 30
0.0
 40
3.657599999999999
 41
57.78499999999985
 71
     5
 72
     1
  1
 
  7
ONSHAPE-STANDARD-FIELDS
 73
     1
 44
1.0
1001
ACAD
1000
MTEXTBEGIN
1070
    73
1070
     1
1070
    44
1040
1.0
1070
    74
1070
     0
1000
MTEXTEND
1000
ACAD_MTEXT_DEFINED_HEIGHT_BEGIN
1070
    46
1040
8.254999999999999
1000
ACAD_MTEXT_DEFINED_HEIGHT_END
  0
MTEXT
  5
17E
102
{ACAD_XDICTIONARY
360
17F
102
}
330
1F
100
AcDbEntity
  8
ANNOTATION_TEXT
 62
     7
 60
     1
100
AcDbMText
 10
117.0724152090818
 20
719.3422795914722
 30
0.0
 40
3.5
 41
0.0
 71
     2
 72
     1
  1

  7
ONSHAPE-STANDARD-VIEW-LABE
 73
     1
 44
1.0
1001
ACAD
1000
MTEXTBEGIN
1070
    73
1070
     1
1070
    44
1040
1.0
1070
    74
1070
     0
1000
MTEXTEND
1000
ACAD_MTEXT_DEFINED_HEIGHT_BEGIN
1070
    46
1040
3.5
1000
ACAD_MTEXT_DEFINED_HEIGHT_END
  0
MTEXT
  5
183
102
{ACAD_XDICTIONARY
360
184
102
}
330
1F
100
AcDbEntity
  8
ANNOTATION_TEXT
 62
     7
 60
     1
100
AcDbMText
 10
117.0724152090818
 20
-17.69141523460678
 30
0.0
 40
3.5
 41
0.0
 71
     2
 72
     1
  1

  7
ONSHAPE-STANDARD-VIEW-LABE
 73
     1
 44
1.0
1001
ACAD
1000
MTEXTBEGIN
1070
    73
1070
     1
1070
    44
1040
1.0
1070
    74
1070
     0
1000
MTEXTEND
1000
ACAD_MTEXT_DEFINED_HEIGHT_BEGIN
1070
    46
1040
3.5
1000
ACAD_MTEXT_DEFINED_HEIGHT_END
  0
MTEXT
  5
186
102
{ACAD_XDICTIONARY
360
187
102
}
330
1F
100
AcDbEntity
  8
ANNOTATION_TEXT
 62
     7
 60
     1
100
AcDbMText
 10
117.0724152090818
 20
670.1224849242866
 30
0.0
 40
3.5
 41
0.0
 71
     2
 72
     1
  1

  7
ONSHAPE-STANDARD-VIEW-LABE
 73
     1
 44
1.0
1001
ACAD
1000
MTEXTBEGIN
1070
    73
1070
     1
1070
    44
1040
1.0
1070
    74
1070
     0
1000
MTEXTEND
1000
ACAD_MTEXT_DEFINED_HEIGHT_BEGIN
1070
    46
1040
3.5
1000
ACAD_MTEXT_DEFINED_HEIGHT_END
  0
MTEXT
  5
18C
102
{ACAD_XDICTIONARY
360
18D
102
}
330
1F
100
AcDbEntity
  8
ANNOTATION_TEXT
 62
     7
 60
     1
100
AcDbMText
 10
117.6165936387355
 20
596.9056131312709
 30
0.0
 40
3.5
 41
0.0
 71
     2
 72
     1
  1

  7
ONSHAPE-STANDARD-VIEW-LABE
 73
     1
 44
1.0
1001
ACAD
1000
MTEXTBEGIN
1070
    73
1070
     1
1070
    44
1040
1.0
1070
    74
1070
     0
1000
MTEXTEND
1000
ACAD_MTEXT_DEFINED_HEIGHT_BEGIN
1070
    46
1040
3.5
1000
ACAD_MTEXT_DEFINED_HEIGHT_END
  0
MTEXT
  5
190
102
{ACAD_XDICTIONARY
360
191
102
}
330
1F
100
AcDbEntity
  8
ANNOTATION_TEXT
 62
     7
 60
     1
100
AcDbMText
 10
112.7301186678457
 20
497.9595195496401
 30
0.0
 40
3.5
 41
0.0
 71
     2
 72
     1
  1

  7
ONSHAPE-STANDARD-VIEW-LABE
 73
     1
 44
1.0
1001
ACAD
1000
MTEXTBEGIN
1070
    73
1070
     1
1070
    44
1040
1.0
1070
    74
1070
     0
1000
MTEXTEND
1000
ACAD_MTEXT_DEFINED_HEIGHT_BEGIN
1070
    46
1040
3.5
1000
ACAD_MTEXT_DEFINED_HEIGHT_END
  0
MTEXT
  5
194
102
{ACAD_XDICTIONARY
360
195
102
}
330
1F
100
AcDbEntity
  8
ANNOTATION_TEXT
 62
     7
 60
     1
100
AcDbMText
 10
112.7301186678457
 20
327.2580880718791
 30
0.0
 40
3.5
 41
0.0
 71
     2
 72
     1
  1

  7
ONSHAPE-STANDARD-VIEW-LABE
 73
     1
 44
1.0
1001
ACAD
1000
MTEXTBEGIN
1070
    73
1070
     1
1070
    44
1040
1.0
1070
    74
1070
     0
1000
MTEXTEND
1000
ACAD_MTEXT_DEFINED_HEIGHT_BEGIN
1070
    46
1040
3.5
1000
ACAD_MTEXT_DEFINED_HEIGHT_END
  0
MTEXT
  5
198
102
{ACAD_XDICTIONARY
360
199
102
}
330
1F
100
AcDbEntity
  8
ANNOTATION_TEXT
 62
     7
 60
     1
100
AcDbMText
 10
314.3720043608903
 20
728.3852827865408
 30
0.0
 40
3.5
 41
0.0
 71
     2
 72
     1
  1

  7
ONSHAPE-STANDARD-VIEW-LABE
 73
     1
 44
1.0
1001
ACAD
1000
MTEXTBEGIN
1070
    73
1070
     1
1070
    44
1040
1.0
1070
    74
1070
     0
1000
MTEXTEND
1000
ACAD_MTEXT_DEFINED_HEIGHT_BEGIN
1070
    46
1040
3.5
1000
ACAD_MTEXT_DEFINED_HEIGHT_END
  0
MTEXT
  5
19B
102
{ACAD_XDICTIONARY
360
19C
102
}
330
1F
100
AcDbEntity
  8
ANNOTATION_TEXT
 62
     7
 60
     1
100
AcDbMText
 10
313.1716889856858
 20
549.2529568280808
 30
0.0
 40
3.5
 41
0.0
 71
     2
 72
     1
  1

  7
ONSHAPE-STANDARD-VIEW-LABE
 73
     1
 44
1.0
1001
ACAD
1000
MTEXTBEGIN
1070
    73
1070
     1
1070
    44
1040
1.0
1070
    74
1070
     0
1000
MTEXTEND
1000
ACAD_MTEXT_DEFINED_HEIGHT_BEGIN
1070
    46
1040
3.5
1000
ACAD_MTEXT_DEFINED_HEIGHT_END
  0
CIRCLE
  5
1A4
330
1F
100
AcDbEntity
  8
VISIBLE
100
AcDbCircle
 10
117.0724152090818
 20
758.0922795914722
 30
0.0
 40
7.5
  0
CIRCLE
  5
1BE
330
1F
100
AcDbEntity
  8
VISIBLE
100
AcDbCircle
 10
164.0724152090818
 20
699.5224849242866
 30
0.0
 40
1.75
  0
CIRCLE
  5
1BF
330
1F
100
AcDbEntity
  8
VISIBLE
100
AcDbCircle
 10
70.07241520908175
 20
699.5224849242866
 30
0.0
 40
1.75
  0
CIRCLE
  5
1C0
330
1F
100
AcDbEntity
  8
VISIBLE
100
AcDbCircle
 10
70.07241520908175
 20
684.5224849242867
 30
0.0
 40
1.75
  0
CIRCLE
  5
1C1
330
1F
100
AcDbEntity
  8
VISIBLE
100
AcDbCircle
 10
164.0724152090818
 20
684.5224849242867
 30
0.0
 40
1.75
  0
CIRCLE
  5
1C7
330
1F
100
AcDbEntity
  8
VISIBLE
100
AcDbCircle
 10
117.0724152090818
 20
692.0224849242867
 30
0.0
 40
7.5
  0
CIRCLE
  5
1D2
330
1F
100
AcDbEntity
  8
pocket
100
AcDbCircle
 10
70.61659363873548
 20
648.5556131314963
 30
0.0
 40
3.25
  0
CIRCLE
  5
1D3
330
1F
100
AcDbEntity
  8
pocket
100
AcDbCircle
 10
70.61659363873548
 20
616.0556131312708
 30
0.0
 40
3.25
  0
CIRCLE
  5
1D4
330
1F
100
AcDbEntity
  8
pocket
100
AcDbCircle
 10
164.6165936387355
 20
616.0556131312708
 30
0.0
 40
3.25
  0
CIRCLE
  5
1D5
330
1F
100
AcDbEntity
  8
pocket
100
AcDbCircle
 10
164.6165936387355
 20
648.5556131312709
 30
0.0
 40
3.25
  0
CIRCLE
  5
1F8
330
1F
100
AcDbEntity
  8
VISIBLE
100
AcDbCircle
 10
164.6165936387355
 20
648.5556131312709
 30
0.0
 40
1.75
  0
CIRCLE
  5
1F9
330
1F
100
AcDbEntity
  8
VISIBLE
100
AcDbCircle
 10
70.61659363873548
 20
648.5556131312709
 30
0.0
 40
1.75
  0
CIRCLE
  5
1FA
330
1F
100
AcDbEntity
  8
VISIBLE
100
AcDbCircle
 10
164.6165936387355
 20
616.0556131312708
 30
0.0
 40
1.75
  0
CIRCLE
  5
1FB
330
1F
100
AcDbEntity
  8
VISIBLE
100
AcDbCircle
 10
70.61659363873548
 20
616.0556131312708
 30
0.0
 40
1.75
  0
CIRCLE
  5
208
330
1F
100
AcDbEntity
  8
VISIBLE
100
AcDbCircle
 10
99.98011866784572
 20
559.2095195496401
 30
0.0
 40
2.5
  0
CIRCLE
  5
209
330
1F
100
AcDbEntity
  8
VISIBLE
100
AcDbCircle
 10
112.7301186678457
 20
546.4595195496401
 30
0.0
 40
11.0
  0
CIRCLE
  5
20A
330
1F
100
AcDbEntity
  8
VISIBLE
100
AcDbCircle
 10
99.98011866784572
 20
533.7095195496401
 30
0.0
 40
2.5
  0
CIRCLE
  5
20B
330
1F
100
AcDbEntity
  8
VISIBLE
100
AcDbCircle
 10
125.4801186678457
 20
533.7095195496401
 30
0.0
 40
2.5
  0
CIRCLE
  5
20C
330
1F
100
AcDbEntity
  8
VISIBLE
100
AcDbCircle
 10
125.4801186678457
 20
559.2095195496401
 30
0.0
 40
2.5
  0
CIRCLE
  5
24A
330
1F
100
AcDbEntity
  8
pocket
100
AcDbCircle
 10
407.0185440141907
 20
705.936400511462
 30
0.0
 40
3.25
  0
CIRCLE
  5
24B
330
1F
100
AcDbEntity
  8
pocket
100
AcDbCircle
 10
406.6663183209374
 20
690.9364005114619
 30
0.0
 40
3.25
  0
CIRCLE
  5
25D
330
1F
100
AcDbEntity
  8
pocket
100
AcDbCircle
 10
312.6663183209375
 20
705.936400511462
 30
0.0
 40
3.25
  0
CIRCLE
  5
25E
330
1F
100
AcDbEntity
  8
pocket
100
AcDbCircle
 10
312.6663183209375
 20
690.9364005114619
 30
0.0
 40
3.25
  0
CIRCLE
  5
260
330
1F
100
AcDbEntity
  8
VISIBLE
100
AcDbCircle
 10
407.0185440141907
 20
705.936400511462
 30
0.0
 40
1.75
  0
CIRCLE
  5
261
330
1F
100
AcDbEntity
  8
VISIBLE
100
AcDbCircle
 10
312.6663183209375
 20
705.936400511462
 30
0.0
 40
1.75
  0
CIRCLE
  5
262
330
1F
100
AcDbEntity
  8
VISIBLE
100
AcDbCircle
 10
312.6663183209375
 20
690.9364005114619
 30
0.0
 40
1.75
  0
CIRCLE
  5
263
330
1F
100
AcDbEntity
  8
VISIBLE
100
AcDbCircle
 10
406.6663183209374
 20
690.9364005114619
 30
0.0
 40
1.75
  0
CIRCLE
  5
265
330
1F
100
AcDbEntity
  8
VISIBLE
100
AcDbCircle
 10
309.774168765836
 20
464.2418110666579
 30
0.0
 40
3.25
  0
CIRCLE
  5
266
330
1F
100
AcDbEntity
  8
VISIBLE
100
AcDbCircle
 10
352.7274977226402
 20
358.2418110666579
 30
0.0
 40
3.25
  0
CIRCLE
  5
268
330
1F
100
AcDbEntity
  8
VISIBLE
100
AcDbCircle
 10
309.774168765836
 20
384.7418110666579
 30
0.0
 40
3.25
  0
CIRCLE
  5
269
330
1F
100
AcDbEntity
  8
VISIBLE
100
AcDbCircle
 10
309.774168765836
 20
358.2418110666579
 30
0.0
 40
3.25
  0
CIRCLE
  5
26A
330
1F
100
AcDbEntity
  8
VISIBLE
100
AcDbCircle
 10
352.7274977226402
 20
384.7418110666579
 30
0.0
 40
3.25
  0
CIRCLE
  5
26B
330
1F
100
AcDbEntity
  8
VISIBLE
100
AcDbCircle
 10
352.7274977226402
 20
437.7418110666578
 30
0.0
 40
3.25
  0
CIRCLE
  5
26C
330
1F
100
AcDbEntity
  8
VISIBLE
100
AcDbCircle
 10
352.7274977226402
 20
411.2418110666578
 30
0.0
 40
3.25
  0
CIRCLE
  5
26D
330
1F
100
AcDbEntity
  8
VISIBLE
100
AcDbCircle
 10
352.7274977226402
 20
464.2418110666579
 30
0.0
 40
3.25
  0
CIRCLE
  5
272
330
1F
100
AcDbEntity
  8
VISIBLE
100
AcDbCircle
 10
309.774168765836
 20
437.7418110666578
 30
0.0
 40
3.25
  0
CIRCLE
  5
273
330
1F
100
AcDbEntity
  8
VISIBLE
100
AcDbCircle
 10
309.774168765836
 20
411.2418110666578
 30
0.0
 40
3.25
  0
CIRCLE
  5
302
330
1F
100
AcDbEntity
  8
VISIBLE
100
AcDbCircle
 10
219.4321027282888
 20
758.0922795914722
 30
0.0
 40
7.5
  0
CIRCLE
  5
310
330
1F
100
AcDbEntity
  8
VISIBLE
100
AcDbCircle
 10
321.2036337108977
 20
758.0922795914722
 30
0.0
 40
7.5
  0
CIRCLE
  5
31E
330
1F
100
AcDbEntity
  8
VISIBLE
100
AcDbCircle
 10
423.8945910283248
 20
758.0922795914722
 30
0.0
 40
7.5
  0
LWPOLYLINE
  5
32E
330
1F
100
AcDbEntity
  8
VISIBLE
100
AcDbPolyline
 90
        6
 70
     1
 43
0.0
 10
266.2508332442381
 20
487.4918110666579
 10
396.2508332442382
 20
487.4918110666579
 42
-0.4142135623730951
 10
406.2508332442381
 20
477.4918110666578
 10
406.2508332442381
 20
337.4918110666579
 10
256.2508332442381
 20
337.4918110666579
 10
256.2508332442381
 20
477.4918110666578
 42
-0.4142135623730951
  0
LWPOLYLINE
  5
332
330
1F
100
AcDbEntity
  8
VISIBLE
100
AcDbPolyline
 90
        4
 70
     1
 43
0.0
 10
124.1174808127332
 20
434.0080880718791
 10
124.1174808127332
 20
389.0080880718791
 10
101.3427565229583
 20
389.0080880718791
 10
101.3427565229583
 20
434.0080880718791
  0
LWPOLYLINE
  5
334
330
1F
100
AcDbEntity
  8
VISIBLE
100
AcDbPolyline
 90
        2
 70
     1
 43
0.0
 10
-130.0147308127332
 20
461.335015756824
 42
1.19308804533968
 10
-130.0147308127332
 20
439.1811603869341
 42
-0.8381611096566537
210
0.0
220
-0.0000000000000001
230
-1.0
  0
LWPOLYLINE
  5
335
330
1F
100
AcDbEntity
  8
VISIBLE
100
AcDbPolyline
 90
        2
 70
     1
 43
0.0
 10
95.4455065229583
 20
461.335015756824
 42
0.838161109656654
 10
95.44550652295823
 20
439.1811603869341
 42
-1.19308804533968
  0
LWPOLYLINE
  5
336
330
1F
100
AcDbEntity
  8
VISIBLE
100
AcDbPolyline
 90
        4
 70
     1
 43
0.0
 10
89.73011866784572
 20
351.5080880718792
 42
1.000000000000031
 10
93.23011866784574
 20
351.5080880718791
 10
93.23011866784574
 20
426.5080880718791
 42
0.9999999999999678
 10
89.73011866784572
 20
426.5080880718791
  0
LWPOLYLINE
  5
338
330
1F
100
AcDbEntity
  8
VISIBLE
100
AcDbPolyline
 90
        8
 70
     1
 43
0.0
 10
70.23011866784571
 20
585.9595195496402
 10
70.23011866784571
 20
506.9595195496402
 42
0.4142135623730951
 10
73.23011866784572
 20
503.9595195496402
 10
152.2301186678457
 20
503.9595195496402
 42
0.4142135623730951
 10
155.2301186678457
 20
506.9595195496402
 10
155.2301186678457
 20
585.9595195496402
 42
0.4142135623730951
 10
152.2301186678457
 20
588.9595195496402
 10
73.23011866784572
 20
588.9595195496402
 42
0.4142135623730951
  0
LWPOLYLINE
  5
33A
330
1F
100
AcDbEntity
  8
VISIBLE
100
AcDbPolyline
 90
        4
 70
     1
 43
0.0
 10
75.77493736739423
 20
531.1521822550365
 42
0.1989123673796581
 10
97.42278137324213
 20
509.5043382491886
 10
101.249615696893
 20
518.7431335743014
 42
-0.1989123673796581
 10
85.01373269250709
 20
534.9790165786875
  0
LWPOLYLINE
  5
33B
330
1F
100
AcDbEntity
  8
VISIBLE
100
AcDbPolyline
 90
        4
 70
     1
 43
0.0
 10
124.2106216387983
 20
574.1759055249787
 42
-0.1989123673796586
 10
140.4465046431843
 20
557.9400225205928
 10
149.6852999682971
 20
561.7668568442438
 42
0.1989123673796583
 10
128.0374559624492
 20
583.4147008500917
  0
LWPOLYLINE
  5
33F
330
1F
100
AcDbEntity
  8
VISIBLE
100
AcDbPolyline
 90
        4
 70
     1
 43
0.0
 10
66.11659363873548
 20
660.8056131312708
 10
169.1165936387355
 20
660.8056131312708
 10
169.1165936387355
 20
603.8056131312709
 10
66.11659363873548
 20
603.8056131312709
  0
LWPOLYLINE
  5
342
330
1F
100
AcDbEntity
  8
VISIBLE
100
AcDbPolyline
 90
        8
 70
     1
 43
0.0
 10
81.00063780135394
 20
647.3056131312708
 42
0.4142135623730951
 10
78.00063780135395
 20
644.3056131312708
 10
78.00063780135395
 20
620.3056131312709
 42
0.4142135623730951
 10
81.00063780135394
 20
617.3056131312709
 10
85.00063780135395
 20
617.3056131312709
 42
0.4142135623730951
 10
88.00063780135394
 20
620.3056131312709
 10
88.00063780135394
 20
644.3056131312708
 42
0.4142135623730951
 10
85.00063780135395
 20
647.3056131312708
  0
LWPOLYLINE
  5
343
330
1F
100
AcDbEntity
  8
VISIBLE
100
AcDbPolyline
 90
        8
 70
     1
 43
0.0
 10
113.1165936387355
 20
652.3056131312708
 42
0.4142135623730951
 10
110.1165936387355
 20
649.3056131312709
 10
110.1165936387355
 20
615.3056131312709
 42
0.4142135623730951
 10
113.1165936387355
 20
612.3056131312709
 10
122.1165936387355
 20
612.3056131312709
 42
0.4142135623730951
 10
125.1165936387355
 20
615.3056131312709
 10
125.1165936387355
 20
649.3056131312709
 42
0.4142135623730951
 10
122.1165936387355
 20
652.3056131312708
  0
LWPOLYLINE
  5
345
330
1F
100
AcDbEntity
  8
VISIBLE
100
AcDbPolyline
 90
        4
 70
     1
 43
0.0
 10
65.57241520908175
 20
707.0224849242866
 10
65.57241520908175
 20
677.0224849242866
 10
168.5724152090818
 20
677.0224849242866
 10
168.5724152090818
 20
707.0224849242866
  0
LWPOLYLINE
  5
346
330
1F
100
AcDbEntity
  8
VISIBLE
100
AcDbPolyline
 90
        4
 70
     1
 43
0.0
 10
109.5724152090818
 20
684.5224849242867
 42
-0.9999999999999998
 10
109.5724152090818
 20
699.5224849242866
 10
85.07241520908175
 20
699.5224849242866
 42
0.9999999999999998
 10
85.07241520908175
 20
684.5224849242867
  0
CIRCLE
  5
34C
330
1F
100
AcDbEntity
  8
pocket
100
AcDbCircle
 10
176.7234957026325
 20
648.5556131314963
 30
0.0
 40
3.25
  0
CIRCLE
  5
34D
330
1F
100
AcDbEntity
  8
pocket
100
AcDbCircle
 10
176.7234957026325
 20
616.0556131312708
 30
0.0
 40
3.25
  0
CIRCLE
  5
34E
330
1F
100
AcDbEntity
  8
pocket
100
AcDbCircle
 10
270.7234957026325
 20
616.0556131312708
 30
0.0
 40
3.25
  0
CIRCLE
  5
34F
330
1F
100
AcDbEntity
  8
pocket
100
AcDbCircle
 10
270.7234957026325
 20
648.5556131312709
 30
0.0
 40
3.25
  0
CIRCLE
  5
350
330
1F
100
AcDbEntity
  8
VISIBLE
100
AcDbCircle
 10
270.7234957026325
 20
648.5556131312709
 30
0.0
 40
1.75
  0
CIRCLE
  5
351
330
1F
100
AcDbEntity
  8
VISIBLE
100
AcDbCircle
 10
176.7234957026325
 20
648.5556131312709
 30
0.0
 40
1.75
  0
CIRCLE
  5
352
330
1F
100
AcDbEntity
  8
VISIBLE
100
AcDbCircle
 10
270.7234957026325
 20
616.0556131312708
 30
0.0
 40
1.75
  0
CIRCLE
  5
353
330
1F
100
AcDbEntity
  8
VISIBLE
100
AcDbCircle
 10
176.7234957026325
 20
616.0556131312708
 30
0.0
 40
1.75
  0
LWPOLYLINE
  5
356
330
1F
100
AcDbEntity
  8
VISIBLE
100
AcDbPolyline
 90
        4
 70
     1
 43
0.0
 10
172.2234957026325
 20
660.8056131312708
 10
275.2234957026325
 20
660.8056131312708
 10
275.2234957026325
 20
603.8056131312709
 10
172.2234957026325
 20
603.8056131312709
  0
LWPOLYLINE
  5
359
330
1F
100
AcDbEntity
  8
VISIBLE
100
AcDbPolyline
 90
        8
 70
     1
 43
0.0
 10
187.1075398652509
 20
647.3056131312708
 42
0.4142135623730951
 10
184.1075398652509
 20
644.3056131312708
 10
184.1075398652509
 20
620.3056131312709
 42
0.4142135623730951
 10
187.1075398652509
 20
617.3056131312709
 10
191.1075398652509
 20
617.3056131312709
 42
0.4142135623730951
 10
194.1075398652509
 20
620.3056131312709
 10
194.1075398652509
 20
644.3056131312708
 42
0.4142135623730951
 10
191.1075398652509
 20
647.3056131312708
  0
LWPOLYLINE
  5
35A
330
1F
100
AcDbEntity
  8
VISIBLE
100
AcDbPolyline
 90
        8
 70
     1
 43
0.0
 10
219.2234957026325
 20
652.3056131312708
 42
0.4142135623730951
 10
216.2234957026325
 20
649.3056131312709
 10
216.2234957026325
 20
615.3056131312709
 42
0.4142135623730951
 10
219.2234957026325
 20
612.3056131312709
 10
228.2234957026325
 20
612.3056131312709
 42
0.4142135623730951
 10
231.2234957026325
 20
615.3056131312709
 10
231.2234957026325
 20
649.3056131312709
 42
0.4142135623730951
 10
228.2234957026325
 20
652.3056131312708
  0
CIRCLE
  5
35C
330
1F
100
AcDbEntity
  8
pocket
100
AcDbCircle
 10
283.8990570500777
 20
648.5556131314963
 30
0.0
 40
3.25
  0
CIRCLE
  5
35D
330
1F
100
AcDbEntity
  8
pocket
100
AcDbCircle
 10
283.8990570500777
 20
616.0556131312708
 30
0.0
 40
3.25
  0
CIRCLE
  5
35E
330
1F
100
AcDbEntity
  8
pocket
100
AcDbCircle
 10
377.8990570500777
 20
616.0556131312708
 30
0.0
 40
3.25
  0
CIRCLE
  5
35F
330
1F
100
AcDbEntity
  8
pocket
100
AcDbCircle
 10
377.8990570500777
 20
648.5556131312709
 30
0.0
 40
3.25
  0
CIRCLE
  5
360
330
1F
100
AcDbEntity
  8
VISIBLE
100
AcDbCircle
 10
377.8990570500777
 20
648.5556131312709
 30
0.0
 40
1.75
  0
CIRCLE
  5
361
330
1F
100
AcDbEntity
  8
VISIBLE
100
AcDbCircle
 10
283.8990570500777
 20
648.5556131312709
 30
0.0
 40
1.75
  0
CIRCLE
  5
362
330
1F
100
AcDbEntity
  8
VISIBLE
100
AcDbCircle
 10
377.8990570500777
 20
616.0556131312708
 30
0.0
 40
1.75
  0
CIRCLE
  5
363
330
1F
100
AcDbEntity
  8
VISIBLE
100
AcDbCircle
 10
283.8990570500777
 20
616.0556131312708
 30
0.0
 40
1.75
  0
LWPOLYLINE
  5
366
330
1F
100
AcDbEntity
  8
VISIBLE
100
AcDbPolyline
 90
        4
 70
     1
 43
0.0
 10
279.3990570500777
 20
660.8056131312708
 10
382.3990570500777
 20
660.8056131312708
 10
382.3990570500777
 20
603.8056131312709
 10
279.3990570500777
 20
603.8056131312709
  0
LWPOLYLINE
  5
369
330
1F
100
AcDbEntity
  8
VISIBLE
100
AcDbPolyline
 90
        8
 70
     1
 43
0.0
 10
294.2831012126961
 20
647.3056131312708
 42
0.4142135623730951
 10
291.2831012126961
 20
644.3056131312708
 10
291.2831012126961
 20
620.3056131312709
 42
0.4142135623730951
 10
294.2831012126961
 20
617.3056131312709
 10
298.2831012126961
 20
617.3056131312709
 42
0.4142135623730951
 10
301.2831012126961
 20
620.3056131312709
 10
301.2831012126961
 20
644.3056131312708
 42
0.4142135623730951
 10
298.2831012126961
 20
647.3056131312708
  0
LWPOLYLINE
  5
36A
330
1F
100
AcDbEntity
  8
VISIBLE
100
AcDbPolyline
 90
        8
 70
     1
 43
0.0
 10
326.3990570500777
 20
652.3056131312708
 42
0.4142135623730951
 10
323.3990570500777
 20
649.3056131312709
 10
323.3990570500777
 20
615.3056131312709
 42
0.4142135623730951
 10
326.3990570500777
 20
612.3056131312709
 10
335.3990570500777
 20
612.3056131312709
 42
0.4142135623730951
 10
338.3990570500777
 20
615.3056131312709
 10
338.3990570500777
 20
649.3056131312709
 42
0.4142135623730951
 10
335.3990570500777
 20
652.3056131312708
  0
LWPOLYLINE
  5
36E
330
1F
100
AcDbEntity
  8
VISIBLE
100
AcDbPolyline
 90
        4
 70
     1
 43
0.0
 10
217.2350411726627
 20
434.0080880718791
 10
217.2350411726627
 20
389.0080880718791
 10
194.4603168828878
 20
389.0080880718791
 10
194.4603168828878
 20
434.0080880718791
  0
LWPOLYLINE
  5
370
330
1F
100
AcDbEntity
  8
VISIBLE
100
AcDbPolyline
 90
        2
 70
     1
 43
0.0
 10
-223.1322911726627
 20
461.335015756824
 42
1.19308804533968
 10
-223.1322911726627
 20
439.1811603869341
 42
-0.8381611096566537
210
0.0
220
-0.0000000000000001
230
-1.0
  0
LWPOLYLINE
  5
371
330
1F
100
AcDbEntity
  8
VISIBLE
100
AcDbPolyline
 90
        2
 70
     1
 43
0.0
 10
188.5630668828878
 20
461.335015756824
 42
0.838161109656654
 10
188.5630668828877
 20
439.1811603869341
 42
-1.19308804533968
  0
LWPOLYLINE
  5
372
330
1F
100
AcDbEntity
  8
VISIBLE
100
AcDbPolyline
 90
        4
 70
     1
 43
0.0
 10
182.8476790277752
 20
351.5080880718792
 42
1.000000000000031
 10
186.3476790277752
 20
351.5080880718791
 10
186.3476790277752
 20
426.5080880718791
 42
0.9999999999999678
 10
182.8476790277752
 20
426.5080880718791
  0
CIRCLE
  5
376
330
1F
100
AcDbEntity
  8
VISIBLE
100
AcDbCircle
 10
465.3522817076652
 20
464.2418110666579
 30
0.0
 40
3.25
  0
CIRCLE
  5
377
330
1F
100
AcDbEntity
  8
VISIBLE
100
AcDbCircle
 10
508.3056106644694
 20
358.2418110666579
 30
0.0
 40
3.25
  0
CIRCLE
  5
378
330
1F
100
AcDbEntity
  8
VISIBLE
100
AcDbCircle
 10
465.3522817076652
 20
384.7418110666579
 30
0.0
 40
3.25
  0
CIRCLE
  5
379
330
1F
100
AcDbEntity
  8
VISIBLE
100
AcDbCircle
 10
465.3522817076652
 20
358.2418110666579
 30
0.0
 40
3.25
  0
CIRCLE
  5
37A
330
1F
100
AcDbEntity
  8
VISIBLE
100
AcDbCircle
 10
508.3056106644694
 20
384.7418110666579
 30
0.0
 40
3.25
  0
CIRCLE
  5
37B
330
1F
100
AcDbEntity
  8
VISIBLE
100
AcDbCircle
 10
508.3056106644694
 20
437.7418110666578
 30
0.0
 40
3.25
  0
CIRCLE
  5
37C
330
1F
100
AcDbEntity
  8
VISIBLE
100
AcDbCircle
 10
508.3056106644694
 20
411.2418110666578
 30
0.0
 40
3.25
  0
CIRCLE
  5
37D
330
1F
100
AcDbEntity
  8
VISIBLE
100
AcDbCircle
 10
508.3056106644694
 20
464.2418110666579
 30
0.0
 40
3.25
  0
CIRCLE
  5
37E
330
1F
100
AcDbEntity
  8
VISIBLE
100
AcDbCircle
 10
465.3522817076652
 20
437.7418110666578
 30
0.0
 40
3.25
  0
CIRCLE
  5
37F
330
1F
100
AcDbEntity
  8
VISIBLE
100
AcDbCircle
 10
465.3522817076652
 20
411.2418110666578
 30
0.0
 40
3.25
  0
LWPOLYLINE
  5
380
330
1F
100
AcDbEntity
  8
VISIBLE
100
AcDbPolyline
 90
        6
 70
     1
 43
0.0
 10
421.8289461860673
 20
487.4918110666579
 10
551.8289461860673
 20
487.4918110666579
 42
-0.4142135623730951
 10
561.8289461860674
 20
477.4918110666578
 10
561.8289461860674
 20
337.4918110666579
 10
411.8289461860674
 20
337.4918110666579
 10
411.8289461860674
 20
477.4918110666578
 42
-0.4142135623730951
  0
LWPOLYLINE
  5
53B
330
1F
100
AcDbEntity
  8
VISIBLE
100
AcDbPolyline
 90
       34
 70
     1
 43
0.0
 10
101.3427565229555
 20
384.0080880718791
 10
118.854907426009
 20
384.0080880718791
 10
123.2329451517724
 20
384.0080880718791
 10
123.7801998674928
 20
384.0080880718791
 10
124.053827225353
 20
384.0080880718791
 10
124.1174808127359
 20
383.8011637447618
 10
124.1174808127357
 20
382.7225498440376
 10
124.1174808127355
 20
380.5653220425893
 10
124.1174808127344
 20
371.9364108367957
 10
124.1174808127334
 20
363.3074996310021
 10
124.1174808127333
 20
362.228885730278
 10
124.1174808127332
 20
361.6895787799159
 10
124.1166968985453
 20
361.363200369989
 10
124.0537546372174
 20
360.3037522868294
 10
123.6169668595136
 20
358.1686730480198
 10
122.7589668760228
 20
356.1138912023403
 10
121.5137740896382
 20
354.2608435140341
 10
119.9592703121906
 20
352.7095357618076
 10
118.2002414900512
 20
351.520450084848
 10
116.2308184272685
 20
350.6720252516304
 10
114.0721899918775
 20
350.1999493739674
 10
111.837459445449
 20
350.1556294939909
 10
109.6535724213624
 20
350.5440550801717
 10
107.6381646798626
 20
351.3224530482656
 10
105.8433857479008
 20
352.4390161271128
 10
104.2387517855662
 20
353.9204768061033
 10
102.9235838194947
 20
355.7195623080877
 10
101.983059432357
 20
357.7430018791212
 10
101.4607753690759
 20
359.8719163619194
 10
101.3569359045112
 20
360.9372377571802
 10
101.3427048847777
 20
361.4637757350859
 10
101.3427565229581
 20
362.4358100573952
 10
101.3427565229576
 20
366.7502656602919
 10
101.3427565229555
 20
384.0080880718792
  0
LWPOLYLINE
  5
53C
330
1F
100
AcDbEntity
  8
VISIBLE
100
AcDbPolyline
 90
        2
 70
     0
 43
0.0
 10
387.4680766667586
 20
670.936400511462
 10
371.2685440141906
 20
670.9364005114618
  0
LWPOLYLINE
  5
53D
330
1F
100
AcDbEntity
  8
VISIBLE
100
AcDbPolyline
 90
        2
 70
     0
 43
0.0
 10
405.5136816602463
 20
670.936400511462
 10
387.4680766667586
 20
670.936400511462
  0
LWPOLYLINE
  5
53E
330
1F
100
AcDbEntity
  8
VISIBLE
100
AcDbPolyline
 90
        2
 70
     0
 43
0.0
 10
400.7177845746137
 20
670.936400511462
 10
371.2685440141906
 20
670.936400511462
  0
LWPOLYLINE
  5
550
330
1F
100
AcDbEntity
  8
VISIBLE
100
AcDbPolyline
 90
        2
 70
     0
 43
0.0
 10
411.5185440141907
 20
683.4887256369179
 10
411.5136816602462
 20
683.436400511462
  0
LWPOLYLINE
  5
551
330
1F
100
AcDbEntity
  8
VISIBLE
100
AcDbPolyline
 90
        2
 70
     0
 43
0.0
 10
411.5185440141907
 20
683.6257915807922
 10
411.5185440141907
 20
683.4887256369179
  0
LWPOLYLINE
  5
552
330
1F
100
AcDbEntity
  8
VISIBLE
100
AcDbPolyline
 90
        2
 70
     0
 43
0.0
 10
411.5185440141907
 20
683.8999234685409
 10
411.5185440141907
 20
683.6257915807922
  0
LWPOLYLINE
  5
553
330
1F
100
AcDbEntity
  8
VISIBLE
100
AcDbPolyline
 90
        2
 70
     0
 43
0.0
 10
411.5185440141907
 20
684.4481872440383
 10
411.5185440141907
 20
683.8999234685409
  0
LWPOLYLINE
  5
554
330
1F
100
AcDbEntity
  8
VISIBLE
100
AcDbPolyline
 90
        2
 70
     0
 43
0.0
 10
411.5185440141907
 20
685.5447147950333
 10
411.5185440141907
 20
684.4481872440383
  0
LWPOLYLINE
  5
555
330
1F
100
AcDbEntity
  8
VISIBLE
100
AcDbPolyline
 90
        2
 70
     0
 43
0.0
 10
411.5185440141907
 20
689.9308249990128
 10
411.5185440141907
 20
685.5447147950333
  0
LWPOLYLINE
  5
556
330
1F
100
AcDbEntity
  8
VISIBLE
100
AcDbPolyline
 90
        2
 70
     0
 43
0.0
 10
411.5185440141907
 20
698.703045406972
 10
411.5185440141907
 20
689.9308249990128
  0
LWPOLYLINE
  5
557
330
1F
100
AcDbEntity
  8
VISIBLE
100
AcDbPolyline
 90
        2
 70
     0
 43
0.0
 10
411.5185440141907
 20
707.4752658149312
 10
411.5185440141907
 20
698.703045406972
  0
LWPOLYLINE
  5
558
330
1F
100
AcDbEntity
  8
VISIBLE
100
AcDbPolyline
 90
        2
 70
     0
 43
0.0
 10
411.5185440141907
 20
711.8613760189107
 10
411.5185440141907
 20
707.4752658149312
  0
LWPOLYLINE
  5
559
330
1F
100
AcDbEntity
  8
VISIBLE
100
AcDbPolyline
 90
        2
 70
     0
 43
0.0
 10
411.5185440141907
 20
712.9579035699057
 10
411.5185440141907
 20
711.8613760189107
  0
LWPOLYLINE
  5
55A
330
1F
100
AcDbEntity
  8
VISIBLE
100
AcDbPolyline
 90
        2
 70
     0
 43
0.0
 10
411.5185440141907
 20
713.2320354576544
 10
411.5185440141907
 20
712.9579035699057
  0
LWPOLYLINE
  5
55B
330
1F
100
AcDbEntity
  8
VISIBLE
100
AcDbPolyline
 90
        2
 70
     0
 43
0.0
 10
411.5185440141907
 20
713.3691014015287
 10
411.5185440141907
 20
713.2320354576544
  0
LWPOLYLINE
  5
55C
330
1F
100
AcDbEntity
  8
VISIBLE
100
AcDbPolyline
 90
        2
 70
     0
 43
0.0
 10
411.5181738555895
 20
713.436400511462
 10
411.5185440141907
 20
713.3691014015287
  0
LWPOLYLINE
  5
55D
330
1F
100
AcDbEntity
  8
VISIBLE
100
AcDbPolyline
 90
        2
 70
     0
 43
0.0
 10
411.4976139640083
 20
713.436400511462
 10
411.5181738555895
 20
713.436400511462
  0
LWPOLYLINE
  5
55E
330
1F
100
AcDbEntity
  8
VISIBLE
100
AcDbPolyline
 90
        2
 70
     0
 43
0.0
 10
411.3331348313591
 20
713.436400511462
 10
411.4976139640083
 20
713.436400511462
  0
LWPOLYLINE
  5
55F
330
1F
100
AcDbEntity
  8
VISIBLE
100
AcDbPolyline
 90
        2
 70
     0
 43
0.0
 10
410.6752183007621
 20
713.436400511462
 10
411.3331348313591
 20
713.436400511462
  0
LWPOLYLINE
  5
560
330
1F
100
AcDbEntity
  8
VISIBLE
100
AcDbPolyline
 90
        2
 70
     0
 43
0.0
 10
405.4118860559866
 20
713.436400511462
 10
410.6752183007621
 20
713.436400511462
  0
LWPOLYLINE
  5
561
330
1F
100
AcDbEntity
  8
VISIBLE
100
AcDbPolyline
 90
        2
 70
     0
 43
0.0
 10
402.7802199335989
 20
713.436400511462
 10
405.4118860559866
 20
713.436400511462
  0
LWPOLYLINE
  5
562
330
1F
100
AcDbEntity
  8
VISIBLE
100
AcDbPolyline
 90
        2
 70
     0
 43
0.0
 10
402.6157408009496
 20
713.436400511462
 10
402.7802199335989
 20
713.436400511462
  0
LWPOLYLINE
  5
563
330
1F
100
AcDbEntity
  8
VISIBLE
100
AcDbPolyline
 90
        2
 70
     0
 43
0.0
 10
402.5335012346251
 20
713.436400511462
 10
402.6157408009496
 20
713.436400511462
  0
LWPOLYLINE
  5
564
330
1F
100
AcDbEntity
  8
VISIBLE
100
AcDbPolyline
 90
        2
 70
     0
 43
0.0
 10
402.5185440141907
 20
713.4245726501522
 10
402.5335012346251
 20
713.436400511462
  0
LWPOLYLINE
  5
565
330
1F
100
AcDbEntity
  8
VISIBLE
100
AcDbPolyline
 90
        2
 70
     0
 43
0.0
 10
402.5185440141907
 20
713.3811684345919
 10
402.5185440141907
 20
713.4245726501522
  0
LWPOLYLINE
  5
566
330
1F
100
AcDbEntity
  8
VISIBLE
100
AcDbPolyline
 90
        2
 70
     0
 43
0.0
 10
402.5185440141907
 20
713.2943600034714
 10
402.5185440141907
 20
713.3811684345919
  0
LWPOLYLINE
  5
567
330
1F
100
AcDbEntity
  8
VISIBLE
100
AcDbPolyline
 90
        2
 70
     0
 43
0.0
 10
402.5185440141907
 20
712.5998925545079
 10
402.5185440141907
 20
713.2943600034714
  0
LWPOLYLINE
  5
568
330
1F
100
AcDbEntity
  8
VISIBLE
100
AcDbPolyline
 90
        2
 70
     0
 43
0.0
 10
402.5185440141907
 20
711.2109576565812
 10
402.5185440141907
 20
712.5998925545079
  0
LWPOLYLINE
  5
569
330
1F
100
AcDbEntity
  8
VISIBLE
100
AcDbPolyline
 90
        2
 70
     0
 43
0.0
 10
402.5185440141907
 20
708.4330878607275
 10
402.5185440141907
 20
711.2109576565812
  0
LWPOLYLINE
  5
56A
330
1F
100
AcDbEntity
  8
VISIBLE
100
AcDbPolyline
 90
        2
 70
     0
 43
0.0
 10
402.5185440141913
 20
697.3216086773129
 10
402.5185440141907
 20
708.4330878607275
  0
LWPOLYLINE
  5
56B
330
1F
100
AcDbEntity
  8
VISIBLE
100
AcDbPolyline
 90
        2
 70
     0
 43
0.0
 10
402.5185440141916
 20
694.5437388814593
 10
402.5185440141913
 20
697.3216086773129
  0
LWPOLYLINE
  5
56C
330
1F
100
AcDbEntity
  8
VISIBLE
100
AcDbPolyline
 90
        2
 70
     0
 43
0.0
 10
402.5185440141916
 20
694.456930450339
 10
402.5185440141916
 20
694.5437388814593
  0
LWPOLYLINE
  5
56D
330
1F
100
AcDbEntity
  8
VISIBLE
100
AcDbPolyline
 90
        2
 70
     0
 43
0.0
 10
402.5132321924989
 20
694.4342131442924
 10
402.5185440141916
 20
694.456930450339
  0
LWPOLYLINE
  5
56E
330
1F
100
AcDbEntity
  8
VISIBLE
100
AcDbPolyline
 90
        2
 70
     0
 43
0.0
 10
402.4148570440926
 20
694.3937718960231
 10
402.5132321924989
 20
694.4342131442924
  0
LWPOLYLINE
  5
56F
330
1F
100
AcDbEntity
  8
VISIBLE
100
AcDbPolyline
 90
        2
 70
     0
 43
0.0
 10
402.2179394301024
 20
694.3132127129351
 10
402.4148570440926
 20
694.3937718960231
  0
LWPOLYLINE
  5
570
330
1F
100
AcDbEntity
  8
VISIBLE
100
AcDbPolyline
 90
        2
 70
     0
 43
0.0
 10
401.4280638849665
 20
693.9953030250831
 10
402.2179394301024
 20
694.3132127129351
  0
LWPOLYLINE
  5
571
330
1F
100
AcDbEntity
  8
VISIBLE
100
AcDbPolyline
 90
        2
 70
     0
 43
0.0
 10
399.8380243125252
 20
693.3804329492404
 10
401.4280638849665
 20
693.9953030250831
  0
LWPOLYLINE
  5
572
330
1F
100
AcDbEntity
  8
VISIBLE
100
AcDbPolyline
 90
        2
 70
     0
 43
0.0
 10
396.6193968262018
 20
692.23595477114
 10
399.8380243125252
 20
693.3804329492404
  0
LWPOLYLINE
  5
573
330
1F
100
AcDbEntity
  8
VISIBLE
100
AcDbPolyline
 90
        2
 70
     0
 43
0.0
 10
393.3544843025945
 20
691.2077047700231
 10
396.6193968262018
 20
692.23595477114
  0
LWPOLYLINE
  5
574
330
1F
100
AcDbEntity
  8
VISIBLE
100
AcDbPolyline
 90
        2
 70
     0
 43
0.0
 10
390.0496253673083
 20
690.2983479856153
 10
393.3544843025945
 20
691.2077047700231
  0
LWPOLYLINE
  5
575
330
1F
100
AcDbEntity
  8
VISIBLE
100
AcDbPolyline
 90
        2
 70
     0
 43
0.0
 10
386.7113543131489
 20
689.5100849965136
 10
390.0496253673083
 20
690.2983479856153
  0
LWPOLYLINE
  5
576
330
1F
100
AcDbEntity
  8
VISIBLE
100
AcDbPolyline
 90
        2
 70
     0
 43
0.0
 10
383.3463582433416
 20
688.8446347479812
 10
386.7113543131489
 20
689.5100849965136
  0
LWPOLYLINE
  5
577
330
1F
100
AcDbEntity
  8
VISIBLE
100
AcDbPolyline
 90
        2
 70
     0
 43
0.0
 10
379.9614324983171
 20
688.303222153315
 10
383.3463582433416
 20
688.8446347479812
  0
LWPOLYLINE
  5
578
330
1F
100
AcDbEntity
  8
VISIBLE
100
AcDbPolyline
 90
        2
 70
     0
 43
0.0
 10
376.5634349884809
 20
687.8865706551773
 10
379.9614324983171
 20
688.303222153315
  0
LWPOLYLINE
  5
579
330
1F
100
AcDbEntity
  8
VISIBLE
100
AcDbPolyline
 90
        2
 70
     0
 43
0.0
 10
373.1592400759737
 20
687.5948998405438
 10
376.5634349884809
 20
687.8865706551773
  0
LWPOLYLINE
  5
57A
330
1F
100
AcDbEntity
  8
VISIBLE
100
AcDbPolyline
 90
        2
 70
     0
 43
0.0
 10
371.2685440141906
 20
687.4849018147735
 10
373.1592400759737
 20
687.5948998405438
  0
LWPOLYLINE
  5
57B
330
1F
100
AcDbEntity
  8
VISIBLE
100
AcDbPolyline
 90
        2
 70
     0
 43
0.0
 10
366.272904441312
 20
687.436400511462
 10
366.3071709272806
 20
687.436400511462
  0
LWPOLYLINE
  5
57C
330
1F
100
AcDbEntity
  8
VISIBLE
100
AcDbPolyline
 90
        2
 70
     0
 43
0.0
 10
371.2685440141906
 20
670.9364005114621
 10
371.2685440141906
 20
687.4874817708272
  0
LWPOLYLINE
  5
57D
330
1F
100
AcDbEntity
  8
VISIBLE
100
AcDbPolyline
 90
        2
 70
     0
 43
0.0
 10
70.23011866784573
 20
486.5080880718791
 10
70.23011866784575
 20
486.5080880718791
  0
LWPOLYLINE
  5
57E
330
1F
100
AcDbEntity
  8
VISIBLE
100
AcDbPolyline
 90
        2
 70
     0
 43
0.0
 10
79.97901223973681
 20
486.5080880718791
 10
70.23011866784573
 20
486.5080880718791
  0
LWPOLYLINE
  5
57F
330
1F
100
AcDbEntity
  8
VISIBLE
100
AcDbPolyline
 90
        2
 70
     0
 43
0.0
 10
82.41623563270955
 20
486.5080880718791
 10
79.97901223973681
 20
486.5080880718791
  0
LWPOLYLINE
  5
580
330
1F
100
AcDbEntity
  8
VISIBLE
100
AcDbPolyline
 90
        2
 70
     0
 43
0.0
 10
83.63484732919594
 20
486.5080880718791
 10
82.41623563270955
 20
486.5080880718791
  0
LWPOLYLINE
  5
581
330
1F
100
AcDbEntity
  8
VISIBLE
100
AcDbPolyline
 90
        2
 70
     0
 43
0.0
 10
84.23011866784573
 20
486.4990658871405
 10
83.63484732919594
 20
486.5080880718791
  0
LWPOLYLINE
  5
582
330
1F
100
AcDbEntity
  8
VISIBLE
100
AcDbPolyline
 90
        2
 70
     0
 43
0.0
 10
84.23011866784573
 20
486.1073692704127
 10
84.23011866784573
 20
486.4990658871405
  0
LWPOLYLINE
  5
583
330
1F
100
AcDbEntity
  8
VISIBLE
100
AcDbPolyline
 90
        2
 70
     0
 43
0.0
 10
84.23011866784573
 20
482.9737963365905
 10
84.23011866784573
 20
486.1073692704127
  0
LWPOLYLINE
  5
584
330
1F
100
AcDbEntity
  8
VISIBLE
100
AcDbPolyline
 90
        2
 70
     0
 43
0.0
 10
84.23011866784575
 20
480.5080880718791
 10
84.23011866784573
 20
482.9737963365905
  0
LWPOLYLINE
  5
585
330
1F
100
AcDbEntity
  8
VISIBLE
100
AcDbPolyline
 90
        2
 70
     0
 43
0.0
 10
141.2301186678457
 20
480.5080880718791
 10
84.23011866784573
 20
480.508088071879
  0
LWPOLYLINE
  5
586
330
1F
100
AcDbEntity
  8
VISIBLE
100
AcDbPolyline
 90
        2
 70
     0
 43
0.0
 10
141.2301186678457
 20
481.8438174101004
 10
141.2301186678457
 20
480.5080880718792
  0
LWPOLYLINE
  5
587
330
1F
100
AcDbEntity
  8
VISIBLE
100
AcDbPolyline
 90
        2
 70
     0
 43
0.0
 10
141.2301186678457
 20
484.9773903439225
 10
141.2301186678457
 20
481.8438174101004
  0
LWPOLYLINE
  5
588
330
1F
100
AcDbEntity
  8
VISIBLE
100
AcDbPolyline
 90
        2
 70
     0
 43
0.0
 10
141.2862567062193
 20
486.5080880718791
 10
141.2301186678457
 20
484.9773903439225
  0
LWPOLYLINE
  5
589
330
1F
100
AcDbEntity
  8
VISIBLE
100
AcDbPolyline
 90
        2
 70
     0
 43
0.0
 10
143.7234800991921
 20
486.5080880718791
 10
141.2862567062193
 20
486.5080880718791
  0
LWPOLYLINE
  5
58A
330
1F
100
AcDbEntity
  8
VISIBLE
100
AcDbPolyline
 90
        2
 70
     0
 43
0.0
 10
153.4723736710832
 20
486.5080880718791
 10
143.7234800991921
 20
486.5080880718791
  0
LWPOLYLINE
  5
58B
330
1F
100
AcDbEntity
  8
VISIBLE
100
AcDbPolyline
 90
        2
 70
     0
 43
0.0
 10
154.6909853675695
 20
486.5080880718791
 10
153.4723736710832
 20
486.5080880718791
  0
LWPOLYLINE
  5
58C
330
1F
100
AcDbEntity
  8
VISIBLE
100
AcDbPolyline
 90
        2
 70
     0
 43
0.0
 10
154.9956382916911
 20
486.5080880718791
 10
154.6909853675695
 20
486.5080880718791
  0
LWPOLYLINE
  5
58D
330
1F
100
AcDbEntity
  8
VISIBLE
100
AcDbPolyline
 90
        2
 70
     0
 43
0.0
 10
155.147964753752
 20
486.5080880718791
 10
154.9956382916911
 20
486.5080880718791
  0
LWPOLYLINE
  5
58E
330
1F
100
AcDbEntity
  8
VISIBLE
100
AcDbPolyline
 90
        2
 70
     0
 43
0.0
 10
155.2241279847824
 20
486.5080880718791
 10
155.147964753752
 20
486.5080880718791
  0
LWPOLYLINE
  5
58F
330
1F
100
AcDbEntity
  8
VISIBLE
100
AcDbPolyline
 90
        2
 70
     0
 43
0.0
 10
155.2301186678457
 20
485.8063625922084
 10
155.2241279847824
 20
486.5080880718791
  0
LWPOLYLINE
  5
590
330
1F
100
AcDbEntity
  8
VISIBLE
100
AcDbPolyline
 90
        2
 70
     0
 43
0.0
 10
155.2301186678457
 20
479.7133041097764
 10
155.2301186678457
 20
485.8063625922084
  0
LWPOLYLINE
  5
591
330
1F
100
AcDbEntity
  8
VISIBLE
100
AcDbPolyline
 90
        2
 70
     0
 43
0.0
 10
155.2301186678457
 20
455.3410701800488
 10
155.2301186678457
 20
479.7133041097764
  0
LWPOLYLINE
  5
592
330
1F
100
AcDbEntity
  8
VISIBLE
100
AcDbPolyline
 90
        2
 70
     0
 43
0.0
 10
155.2301186678457
 20
406.5966023205935
 10
155.2301186678457
 20
455.3410701800488
  0
LWPOLYLINE
  5
593
330
1F
100
AcDbEntity
  8
VISIBLE
100
AcDbPolyline
 90
        2
 70
     0
 43
0.0
 10
155.2301186678457
 20
357.8521344611384
 10
155.2301186678457
 20
406.5966023205935
  0
LWPOLYLINE
  5
594
330
1F
100
AcDbEntity
  8
VISIBLE
100
AcDbPolyline
 90
        2
 70
     0
 43
0.0
 10
155.2301186678457
 20
351.7590759787064
 10
155.2301186678457
 20
357.8521344611384
  0
LWPOLYLINE
  5
595
330
1F
100
AcDbEntity
  8
VISIBLE
100
AcDbPolyline
 90
        2
 70
     0
 43
0.0
 10
155.2301186678457
 20
348.7125467374903
 10
155.2301186678457
 20
351.7590759787064
  0
LWPOLYLINE
  5
596
330
1F
100
AcDbEntity
  8
VISIBLE
100
AcDbPolyline
 90
        2
 70
     0
 43
0.0
 10
155.2301186678457
 20
347.1892821168824
 10
155.2301186678457
 20
348.7125467374903
  0
LWPOLYLINE
  5
597
330
1F
100
AcDbEntity
  8
VISIBLE
100
AcDbPolyline
 90
        2
 70
     0
 43
0.0
 10
155.2301173296408
 20
346.5029146692182
 10
155.2301186678457
 20
347.1892821168824
  0
LWPOLYLINE
  5
598
330
1F
100
AcDbEntity
  8
VISIBLE
100
AcDbPolyline
 90
        2
 70
     0
 43
0.0
 10
155.2299717168067
 20
346.453875534734
 10
155.2301173296408
 20
346.5029146692182
  0
LWPOLYLINE
  5
599
330
1F
100
AcDbEntity
  8
VISIBLE
100
AcDbPolyline
 90
        2
 70
     0
 43
0.0
 10
155.1938369768422
 20
345.6570196498543
 10
155.2299717168067
 20
346.453875534734
  0
LWPOLYLINE
  5
59A
330
1F
100
AcDbEntity
  8
VISIBLE
100
AcDbPolyline
 90
        2
 70
     0
 43
0.0
 10
154.9148091428835
 20
344.0167489936501
 10
155.1938369768422
 20
345.6570196498543
  0
LWPOLYLINE
  5
59B
330
1F
100
AcDbEntity
  8
VISIBLE
100
AcDbPolyline
 90
        2
 70
     0
 43
0.0
 10
154.3351899874914
 20
342.3731544249914
 10
154.9148091428835
 20
344.0167489936501
  0
LWPOLYLINE
  5
59C
330
1F
100
AcDbEntity
  8
VISIBLE
100
AcDbPolyline
 90
        2
 70
     0
 43
0.0
 10
153.4467041199069
 20
340.8082877675723
 10
154.3351899874914
 20
342.3731544249914
  0
LWPOLYLINE
  5
59D
330
1F
100
AcDbEntity
  8
VISIBLE
100
AcDbPolyline
 90
        2
 70
     0
 43
0.0
 10
152.2712159685275
 20
339.4071762429426
 10
153.4467041199069
 20
340.8082877675723
  0
LWPOLYLINE
  5
59E
330
1F
100
AcDbEntity
  8
VISIBLE
100
AcDbPolyline
 90
        2
 70
     0
 43
0.0
 10
150.8607955113604
 20
338.2439802383676
 10
152.2712159685275
 20
339.4071762429426
  0
LWPOLYLINE
  5
59F
330
1F
100
AcDbEntity
  8
VISIBLE
100
AcDbPolyline
 90
        2
 70
     0
 43
0.0
 10
149.290406462451
 20
337.3694851685367
 10
150.8607955113604
 20
338.2439802383676
  0
LWPOLYLINE
  5
5A0
330
1F
100
AcDbEntity
  8
VISIBLE
100
AcDbPolyline
 90
        2
 70
     0
 43
0.0
 10
147.6452348673168
 20
336.8041087982485
 10
149.290406462451
 20
337.3694851685367
  0
LWPOLYLINE
  5
5A1
330
1F
100
AcDbEntity
  8
VISIBLE
100
AcDbPolyline
 90
        2
 70
     0
 43
0.0
 10
146.0068968269297
 20
336.5383029341958
 10
147.6452348673168
 20
336.8041087982485
  0
LWPOLYLINE
  5
5A2
330
1F
100
AcDbEntity
  8
VISIBLE
100
AcDbPolyline
 90
        2
 70
     0
 43
0.0
 10
145.0997982216212
 20
336.5080880718791
 10
146.0068968269297
 20
336.5383029341958
  0
LWPOLYLINE
  5
5A3
330
1F
100
AcDbEntity
  8
VISIBLE
100
AcDbPolyline
 90
        2
 70
     0
 43
0.0
 10
139.44195820222
 20
336.5080880718791
 10
145.0997982216212
 20
336.5080880718791
  0
LWPOLYLINE
  5
5A4
330
1F
100
AcDbEntity
  8
VISIBLE
100
AcDbPolyline
 90
        2
 70
     0
 43
0.0
 10
94.17923804701159
 20
336.5080880718791
 10
139.44195820222
 20
336.5080880718791
  0
LWPOLYLINE
  5
5A5
330
1F
100
AcDbEntity
  8
VISIBLE
100
AcDbPolyline
 90
        2
 70
     0
 43
0.0
 10
82.86355800820947
 20
336.5080880718791
 10
94.17923804701159
 20
336.5080880718791
  0
LWPOLYLINE
  5
5A6
330
1F
100
AcDbEntity
  8
VISIBLE
100
AcDbPolyline
 90
        2
 70
     0
 43
0.0
 10
81.44909800335922
 20
336.5080880718791
 10
82.86355800820947
 20
336.5080880718791
  0
LWPOLYLINE
  5
5A7
330
1F
100
AcDbEntity
  8
VISIBLE
100
AcDbPolyline
 90
        2
 70
     0
 43
0.0
 10
80.74186800093407
 20
336.5080880718791
 10
81.44909800335922
 20
336.5080880718791
  0
LWPOLYLINE
  5
5A8
330
1F
100
AcDbEntity
  8
VISIBLE
100
AcDbPolyline
 90
        2
 70
     0
 43
0.0
 10
80.38825299972149
 20
336.5080880718791
 10
80.74186800093407
 20
336.5080880718791
  0
LWPOLYLINE
  5
5A9
330
1F
100
AcDbEntity
  8
VISIBLE
100
AcDbPolyline
 90
        2
 70
     0
 43
0.0
 10
80.20302745866706
 20
336.5081247686272
 10
80.38825299972149
 20
336.5080880718791
  0
LWPOLYLINE
  5
5AA
330
1F
100
AcDbEntity
  8
VISIBLE
100
AcDbPolyline
 90
        2
 70
     0
 43
0.0
 10
79.80773064339452
 20
336.5170126364317
 10
80.20302745866706
 20
336.5081247686272
  0
LWPOLYLINE
  5
5AB
330
1F
100
AcDbEntity
  8
VISIBLE
100
AcDbPolyline
 90
        2
 70
     0
 43
0.0
 10
79.00149490940655
 20
336.5838508890928
 10
79.80773064339452
 20
336.5170126364317
  0
LWPOLYLINE
  5
5AC
330
1F
100
AcDbEntity
  8
VISIBLE
100
AcDbPolyline
 90
        2
 70
     0
 43
0.0
 10
77.35372296910816
 20
336.9307007567349
 10
79.00149490940655
 20
336.5838508890928
  0
LWPOLYLINE
  5
5AD
330
1F
100
AcDbEntity
  8
VISIBLE
100
AcDbPolyline
 90
        2
 70
     0
 43
0.0
 10
75.72080552342462
 20
337.5825015384601
 10
77.35372296910816
 20
336.9307007567349
  0
LWPOLYLINE
  5
5AE
330
1F
100
AcDbEntity
  8
VISIBLE
100
AcDbPolyline
 90
        2
 70
     0
 43
0.0
 10
74.18662539296204
 20
338.5408935194387
 10
75.72080552342462
 20
337.5825015384601
  0
LWPOLYLINE
  5
5AF
330
1F
100
AcDbEntity
  8
VISIBLE
100
AcDbPolyline
 90
        2
 70
     0
 43
0.0
 10
72.83494447979061
 20
339.7767138638646
 10
74.18662539296204
 20
338.5408935194387
  0
LWPOLYLINE
  5
5B0
330
1F
100
AcDbEntity
  8
VISIBLE
100
AcDbPolyline
 90
        2
 70
     0
 43
0.0
 10
71.73545502957155
 20
341.2316603340452
 10
72.83494447979061
 20
339.7767138638646
  0
LWPOLYLINE
  5
5B1
330
1F
100
AcDbEntity
  8
VISIBLE
100
AcDbPolyline
 90
        2
 70
     0
 43
0.0
 10
70.93223565722144
 20
342.8271409762603
 10
71.73545502957155
 20
341.2316603340452
  0
LWPOLYLINE
  5
5B2
330
1F
100
AcDbEntity
  8
VISIBLE
100
AcDbPolyline
 90
        2
 70
     0
 43
0.0
 10
70.43842756432216
 20
344.477623757202
 10
70.93223565722144
 20
342.8271409762603
  0
LWPOLYLINE
  5
5B3
330
1F
100
AcDbEntity
  8
VISIBLE
100
AcDbPolyline
 90
        2
 70
     0
 43
0.0
 10
70.23828483931987
 20
346.1040376503647
 10
70.43842756432216
 20
344.477623757202
  0
LWPOLYLINE
  5
5B4
330
1F
100
AcDbEntity
  8
VISIBLE
100
AcDbPolyline
 90
        2
 70
     0
 43
0.0
 10
70.23012274222023
 20
346.4990610306748
 10
70.23828483931987
 20
346.1040376503647
  0
LWPOLYLINE
  5
5B5
330
1F
100
AcDbEntity
  8
VISIBLE
100
AcDbPolyline
 90
        2
 70
     0
 43
0.0
 10
70.23011866784575
 20
346.7485591310969
 10
70.23012274222023
 20
346.4990610306748
  0
LWPOLYLINE
  5
5B6
330
1F
100
AcDbEntity
  8
VISIBLE
100
AcDbPolyline
 90
        2
 70
     0
 43
0.0
 10
70.23011866784575
 20
347.1293752862489
 10
70.23011866784575
 20
346.7485591310969
  0
LWPOLYLINE
  5
5B7
330
1F
100
AcDbEntity
  8
VISIBLE
100
AcDbPolyline
 90
        2
 70
     0
 43
0.0
 10
70.23011866784575
 20
347.891007596553
 10
70.23011866784575
 20
347.1293752862489
  0
LWPOLYLINE
  5
5B8
330
1F
100
AcDbEntity
  8
VISIBLE
100
AcDbPolyline
 90
        2
 70
     0
 43
0.0
 10
70.23011866784575
 20
349.414272217161
 10
70.23011866784575
 20
347.891007596553
  0
LWPOLYLINE
  5
5B9
330
1F
100
AcDbEntity
  8
VISIBLE
100
AcDbPolyline
 90
        2
 70
     0
 43
0.0
 10
70.23011866784575
 20
352.4608014583769
 10
70.23011866784575
 20
349.414272217161
  0
LWPOLYLINE
  5
5BA
330
1F
100
AcDbEntity
  8
VISIBLE
100
AcDbPolyline
 90
        2
 70
     0
 43
0.0
 10
70.23011866784575
 20
364.6469184232408
 10
70.23011866784575
 20
352.4608014583769
  0
LWPOLYLINE
  5
5BB
330
1F
100
AcDbEntity
  8
VISIBLE
100
AcDbPolyline
 90
        2
 70
     0
 43
0.0
 10
70.23011866784575
 20
389.0191523529684
 10
70.23011866784575
 20
364.6469184232408
  0
LWPOLYLINE
  5
5BC
330
1F
100
AcDbEntity
  8
VISIBLE
100
AcDbPolyline
 90
        2
 70
     0
 43
0.0
 10
70.23011866784575
 20
486.5080880718791
 10
70.23011866784575
 20
389.0191523529684
  0
LWPOLYLINE
  5
5BD
330
1F
100
AcDbEntity
  8
VISIBLE
100
AcDbPolyline
 90
        2
 70
     0
 43
0.0
 10
163.3476790277752
 20
486.5080880718791
 10
163.3476790277752
 20
486.5080880718791
  0
LWPOLYLINE
  5
5BE
330
1F
100
AcDbEntity
  8
VISIBLE
100
AcDbPolyline
 90
        2
 70
     0
 43
0.0
 10
173.0965725996663
 20
486.5080880718791
 10
163.3476790277752
 20
486.5080880718791
  0
LWPOLYLINE
  5
5BF
330
1F
100
AcDbEntity
  8
VISIBLE
100
AcDbPolyline
 90
        2
 70
     0
 43
0.0
 10
175.533795992639
 20
486.5080880718791
 10
173.0965725996663
 20
486.5080880718791
  0
LWPOLYLINE
  5
5C0
330
1F
100
AcDbEntity
  8
VISIBLE
100
AcDbPolyline
 90
        2
 70
     0
 43
0.0
 10
176.7524076891254
 20
486.5080880718791
 10
175.533795992639
 20
486.5080880718791
  0
LWPOLYLINE
  5
5C1
330
1F
100
AcDbEntity
  8
VISIBLE
100
AcDbPolyline
 90
        2
 70
     0
 43
0.0
 10
177.057060613247
 20
486.5080880718791
 10
176.7524076891254
 20
486.5080880718791
  0
LWPOLYLINE
  5
5C2
330
1F
100
AcDbEntity
  8
VISIBLE
100
AcDbPolyline
 90
        2
 70
     0
 43
0.0
 10
177.2093870753078
 20
486.5080880718791
 10
177.057060613247
 20
486.5080880718791
  0
LWPOLYLINE
  5
5C3
330
1F
100
AcDbEntity
  8
VISIBLE
100
AcDbPolyline
 90
        2
 70
     0
 43
0.0
 10
177.2855503063382
 20
486.5080880718791
 10
177.2093870753078
 20
486.5080880718791
  0
LWPOLYLINE
  5
5C4
330
1F
100
AcDbEntity
  8
VISIBLE
100
AcDbPolyline
 90
        2
 70
     0
 43
0.0
 10
177.3236319218534
 20
486.5080880718791
 10
177.2855503063382
 20
486.5080880718791
  0
LWPOLYLINE
  5
5C5
330
1F
100
AcDbEntity
  8
VISIBLE
100
AcDbPolyline
 90
        2
 70
     0
 43
0.0
 10
177.3426727296109
 20
486.5080880718791
 10
177.3236319218534
 20
486.5080880718791
  0
LWPOLYLINE
  5
5C6
330
1F
100
AcDbEntity
  8
VISIBLE
100
AcDbPolyline
 90
        2
 70
     0
 43
0.0
 10
177.3474329315503
 20
486.5080880718791
 10
177.3426727296109
 20
486.5080880718791
  0
LWPOLYLINE
  5
5C7
330
1F
100
AcDbEntity
  8
VISIBLE
100
AcDbPolyline
 90
        2
 70
     0
 43
0.0
 10
177.3476790277752
 20
486.5051861467768
 10
177.3474329315503
 20
486.5080880718791
  0
LWPOLYLINE
  5
5C8
330
1F
100
AcDbEntity
  8
VISIBLE
100
AcDbPolyline
 90
        2
 70
     0
 43
0.0
 10
177.3476790277752
 20
486.4990658871405
 10
177.3476790277752
 20
486.5051861467768
  0
LWPOLYLINE
  5
5C9
330
1F
100
AcDbEntity
  8
VISIBLE
100
AcDbPolyline
 90
        2
 70
     0
 43
0.0
 10
177.3476790277752
 20
486.1073692704127
 10
177.3476790277752
 20
486.4990658871405
  0
LWPOLYLINE
  5
5CA
330
1F
100
AcDbEntity
  8
VISIBLE
100
AcDbPolyline
 90
        2
 70
     0
 43
0.0
 10
177.3476790277752
 20
480.5080880718791
 10
177.3476790277752
 20
486.1073692704127
  0
LWPOLYLINE
  5
5CB
330
1F
100
AcDbEntity
  8
VISIBLE
100
AcDbPolyline
 90
        2
 70
     0
 43
0.0
 10
234.3476790277752
 20
480.5080880718791
 10
177.3476790277752
 20
480.5080880718791
  0
LWPOLYLINE
  5
5CC
330
1F
100
AcDbEntity
  8
VISIBLE
100
AcDbPolyline
 90
        2
 70
     0
 43
0.0
 10
234.3476790277752
 20
484.9773903439225
 10
234.3476790277752
 20
480.5080880718791
  0
LWPOLYLINE
  5
5CD
330
1F
100
AcDbEntity
  8
VISIBLE
100
AcDbPolyline
 90
        2
 70
     0
 43
0.0
 10
234.3476790277752
 20
485.7607835773781
 10
234.3476790277752
 20
484.9773903439225
  0
LWPOLYLINE
  5
5CE
330
1F
100
AcDbEntity
  8
VISIBLE
100
AcDbPolyline
 90
        2
 70
     0
 43
0.0
 10
234.3476790277752
 20
486.1524801941058
 10
234.3476790277752
 20
485.7607835773781
  0
LWPOLYLINE
  5
5CF
330
1F
100
AcDbEntity
  8
VISIBLE
100
AcDbPolyline
 90
        2
 70
     0
 43
0.0
 10
234.3476790277752
 20
486.3483285024697
 10
234.3476790277752
 20
486.1524801941058
  0
LWPOLYLINE
  5
5D0
330
1F
100
AcDbEntity
  8
VISIBLE
100
AcDbPolyline
 90
        2
 70
     0
 43
0.0
 10
234.3476790277752
 20
486.4462526566517
 10
234.3476790277752
 20
486.3483285024697
  0
LWPOLYLINE
  5
5D1
330
1F
100
AcDbEntity
  8
VISIBLE
100
AcDbPolyline
 90
        2
 70
     0
 43
0.0
 10
234.3476790277752
 20
486.4952147337426
 10
234.3476790277752
 20
486.4462526566517
  0
LWPOLYLINE
  5
5D2
330
1F
100
AcDbEntity
  8
VISIBLE
100
AcDbPolyline
 90
        2
 70
     0
 43
0.0
 10
234.3476790277752
 20
486.5074552530153
 10
234.3476790277752
 20
486.4952147337426
  0
LWPOLYLINE
  5
5D3
330
1F
100
AcDbEntity
  8
VISIBLE
100
AcDbPolyline
 90
        2
 70
     0
 43
0.0
 10
234.3490747438457
 20
486.5080880718791
 10
234.3476790277752
 20
486.5074552530153
  0
LWPOLYLINE
  5
5D4
330
1F
100
AcDbEntity
  8
VISIBLE
100
AcDbPolyline
 90
        2
 70
     0
 43
0.0
 10
234.3514548448154
 20
486.5080880718791
 10
234.3490747438457
 20
486.5080880718791
  0
LWPOLYLINE
  5
5D5
330
1F
100
AcDbEntity
  8
VISIBLE
100
AcDbPolyline
 90
        2
 70
     0
 43
0.0
 10
234.3562150467548
 20
486.5080880718791
 10
234.3514548448154
 20
486.5080880718791
  0
LWPOLYLINE
  5
5D6
330
1F
100
AcDbEntity
  8
VISIBLE
100
AcDbPolyline
 90
        2
 70
     0
 43
0.0
 10
234.3657354506336
 20
486.5080880718791
 10
234.3562150467548
 20
486.5080880718791
  0
LWPOLYLINE
  5
5D7
330
1F
100
AcDbEntity
  8
VISIBLE
100
AcDbPolyline
 90
        2
 70
     0
 43
0.0
 10
234.4038170661488
 20
486.5080880718791
 10
234.3657354506336
 20
486.5080880718791
  0
LWPOLYLINE
  5
5D8
330
1F
100
AcDbEntity
  8
VISIBLE
100
AcDbPolyline
 90
        2
 70
     0
 43
0.0
 10
236.8410404591216
 20
486.5080880718791
 10
234.4038170661488
 20
486.5080880718791
  0
LWPOLYLINE
  5
5D9
330
1F
100
AcDbEntity
  8
VISIBLE
100
AcDbPolyline
 90
        2
 70
     0
 43
0.0
 10
246.5899340310127
 20
486.5080880718791
 10
236.8410404591216
 20
486.5080880718791
  0
LWPOLYLINE
  5
5DA
330
1F
100
AcDbEntity
  8
VISIBLE
100
AcDbPolyline
 90
        2
 70
     0
 43
0.0
 10
247.808545727499
 20
486.5080880718791
 10
246.5899340310127
 20
486.5080880718791
  0
LWPOLYLINE
  5
5DB
330
1F
100
AcDbEntity
  8
VISIBLE
100
AcDbPolyline
 90
        2
 70
     0
 43
0.0
 10
248.1131986516206
 20
486.5080880718791
 10
247.808545727499
 20
486.5080880718791
  0
LWPOLYLINE
  5
5DC
330
1F
100
AcDbEntity
  8
VISIBLE
100
AcDbPolyline
 90
        2
 70
     0
 43
0.0
 10
248.2655251136815
 20
486.5080880718791
 10
248.1131986516206
 20
486.5080880718791
  0
LWPOLYLINE
  5
5DD
330
1F
100
AcDbEntity
  8
VISIBLE
100
AcDbPolyline
 90
        2
 70
     0
 43
0.0
 10
248.3416883447119
 20
486.5080880718791
 10
248.2655251136815
 20
486.5080880718791
  0
LWPOLYLINE
  5
5DE
330
1F
100
AcDbEntity
  8
VISIBLE
100
AcDbPolyline
 90
        2
 70
     0
 43
0.0
 10
248.3464485466512
 20
486.5080880718791
 10
248.3416883447119
 20
486.5080880718791
  0
LWPOLYLINE
  5
5DF
330
1F
100
AcDbEntity
  8
VISIBLE
100
AcDbPolyline
 90
        2
 70
     0
 43
0.0
 10
248.3476385971361
 20
486.5080880718791
 10
248.3464485466512
 20
486.5080880718791
  0
LWPOLYLINE
  5
5E0
330
1F
100
AcDbEntity
  8
VISIBLE
100
AcDbPolyline
 90
        2
 70
     0
 43
0.0
 10
248.3476790277752
 20
486.4965918734213
 10
248.3476385971361
 20
486.5080880718791
  0
LWPOLYLINE
  5
5E1
330
1F
100
AcDbEntity
  8
VISIBLE
100
AcDbPolyline
 90
        2
 70
     0
 43
0.0
 10
248.3476790277752
 20
486.4727908637243
 10
248.3476790277752
 20
486.4965918734213
  0
LWPOLYLINE
  5
5E2
330
1F
100
AcDbEntity
  8
VISIBLE
100
AcDbPolyline
 90
        2
 70
     0
 43
0.0
 10
248.3476790277752
 20
486.3775868249363
 10
248.3476790277752
 20
486.4727908637243
  0
LWPOLYLINE
  5
5E3
330
1F
100
AcDbEntity
  8
VISIBLE
100
AcDbPolyline
 90
        2
 70
     0
 43
0.0
 10
248.3476790277752
 20
486.1871787473604
 10
248.3476790277752
 20
486.3775868249363
  0
LWPOLYLINE
  5
5E4
330
1F
100
AcDbEntity
  8
VISIBLE
100
AcDbPolyline
 90
        2
 70
     0
 43
0.0
 10
248.3476790277752
 20
485.8063625922084
 10
248.3476790277752
 20
486.1871787473604
  0
LWPOLYLINE
  5
5E5
330
1F
100
AcDbEntity
  8
VISIBLE
100
AcDbPolyline
 90
        2
 70
     0
 43
0.0
 10
248.3476790277752
 20
479.7133041097764
 10
248.3476790277752
 20
485.8063625922084
  0
LWPOLYLINE
  5
5E6
330
1F
100
AcDbEntity
  8
VISIBLE
100
AcDbPolyline
 90
        2
 70
     0
 43
0.0
 10
248.3476790277752
 20
455.3410701800488
 10
248.3476790277752
 20
479.7133041097764
  0
LWPOLYLINE
  5
5E7
330
1F
100
AcDbEntity
  8
VISIBLE
100
AcDbPolyline
 90
        2
 70
     0
 43
0.0
 10
248.3476790277752
 20
406.5966023205935
 10
248.3476790277752
 20
455.3410701800488
  0
LWPOLYLINE
  5
5E8
330
1F
100
AcDbEntity
  8
VISIBLE
100
AcDbPolyline
 90
        2
 70
     0
 43
0.0
 10
248.3476790277752
 20
357.8521344611384
 10
248.3476790277752
 20
406.5966023205935
  0
LWPOLYLINE
  5
5E9
330
1F
100
AcDbEntity
  8
VISIBLE
100
AcDbPolyline
 90
        2
 70
     0
 43
0.0
 10
248.3476790277752
 20
351.7590759787064
 10
248.3476790277752
 20
357.8521344611384
  0
LWPOLYLINE
  5
5EA
330
1F
100
AcDbEntity
  8
VISIBLE
100
AcDbPolyline
 90
        2
 70
     0
 43
0.0
 10
248.3476790277752
 20
348.7125467374903
 10
248.3476790277752
 20
351.7590759787064
  0
LWPOLYLINE
  5
5EB
330
1F
100
AcDbEntity
  8
VISIBLE
100
AcDbPolyline
 90
        2
 70
     0
 43
0.0
 10
248.3476790277752
 20
347.1892821168824
 10
248.3476790277752
 20
348.7125467374903
  0
LWPOLYLINE
  5
5EC
330
1F
100
AcDbEntity
  8
VISIBLE
100
AcDbPolyline
 90
        2
 70
     0
 43
0.0
 10
248.3476790277752
 20
346.8084659617304
 10
248.3476790277752
 20
347.1892821168824
  0
LWPOLYLINE
  5
5ED
330
1F
100
AcDbEntity
  8
VISIBLE
100
AcDbPolyline
 90
        2
 70
     0
 43
0.0
 10
248.3476790277752
 20
346.6180578841544
 10
248.3476790277752
 20
346.8084659617304
  0
LWPOLYLINE
  5
5EE
330
1F
100
AcDbEntity
  8
VISIBLE
100
AcDbPolyline
 90
        2
 70
     0
 43
0.0
 10
248.3476790277752
 20
346.5228538453664
 10
248.3476790277752
 20
346.6180578841544
  0
LWPOLYLINE
  5
5EF
330
1F
100
AcDbEntity
  8
VISIBLE
100
AcDbPolyline
 90
        2
 70
     0
 43
0.0
 10
248.3476790277752
 20
346.510953340518
 10
248.3476790277752
 20
346.5228538453664
  0
LWPOLYLINE
  5
5F0
330
1F
100
AcDbEntity
  8
VISIBLE
100
AcDbPolyline
 90
        2
 70
     0
 43
0.0
 10
248.3476790277727
 20
346.5080810071234
 10
248.3476790277752
 20
346.510953340518
  0
LWPOLYLINE
  5
5F1
330
1F
100
AcDbEntity
  8
VISIBLE
100
AcDbPolyline
 90
        2
 70
     0
 43
0.0
 10
248.3476790258073
 20
346.5078896809755
 10
248.3476790277727
 20
346.5080810071234
  0
LWPOLYLINE
  5
5F2
330
1F
100
AcDbEntity
  8
VISIBLE
100
AcDbPolyline
 90
        2
 70
     0
 43
0.0
 10
248.3476790108944
 20
346.5075070241317
 10
248.3476790258073
 20
346.5078896809755
  0
LWPOLYLINE
  5
5F3
330
1F
100
AcDbEntity
  8
VISIBLE
100
AcDbPolyline
 90
        2
 70
     0
 43
0.0
 10
248.3476788048037
 20
346.5059763361238
 10
248.3476790108944
 20
346.5075070241317
  0
LWPOLYLINE
  5
5F4
330
1F
100
AcDbEntity
  8
VISIBLE
100
AcDbPolyline
 90
        2
 70
     0
 43
0.0
 10
248.3476776895704
 20
346.5029146692182
 10
248.3476788048037
 20
346.5059763361238
  0
LWPOLYLINE
  5
5F5
330
1F
100
AcDbEntity
  8
VISIBLE
100
AcDbPolyline
 90
        2
 70
     0
 43
0.0
 10
248.3475320767363
 20
346.453875534734
 10
248.3476776895704
 20
346.5029146692182
  0
LWPOLYLINE
  5
5F6
330
1F
100
AcDbEntity
  8
VISIBLE
100
AcDbPolyline
 90
        2
 70
     0
 43
0.0
 10
248.3445201539432
 20
346.2567566210879
 10
248.3475320767363
 20
346.453875534734
  0
LWPOLYLINE
  5
5F7
330
1F
100
AcDbEntity
  8
VISIBLE
100
AcDbPolyline
 90
        2
 70
     0
 43
0.0
 10
248.3375526649504
 20
346.0581717315752
 10
248.3445201539432
 20
346.2567566210879
  0
LWPOLYLINE
  5
5F8
330
1F
100
AcDbEntity
  8
VISIBLE
100
AcDbPolyline
 90
        2
 70
     0
 43
0.0
 10
248.3265404871717
 20
345.8582234904694
 10
248.3375526649504
 20
346.0581717315752
  0
LWPOLYLINE
  5
5F9
330
1F
100
AcDbEntity
  8
VISIBLE
100
AcDbPolyline
 90
        2
 70
     0
 43
0.0
 10
248.3113973367717
 20
345.6570196498543
 10
248.3265404871717
 20
345.8582234904694
  0
LWPOLYLINE
  5
5FA
330
1F
100
AcDbEntity
  8
VISIBLE
100
AcDbPolyline
 90
        2
 70
     0
 43
0.0
 10
248.2920400814072
 20
345.4546730373325
 10
248.3113973367717
 20
345.6570196498543
  0
LWPOLYLINE
  5
5FB
330
1F
100
AcDbEntity
  8
VISIBLE
100
AcDbPolyline
 90
        2
 70
     0
 43
0.0
 10
248.2683890563418
 20
345.2513014833532
 10
248.2920400814072
 20
345.4546730373325
  0
LWPOLYLINE
  5
5FC
330
1F
100
AcDbEntity
  8
VISIBLE
100
AcDbPolyline
 90
        2
 70
     0
 43
0.0
 10
248.2403683825394
 20
345.0470277274257
 10
248.2683890563418
 20
345.2513014833532
  0
LWPOLYLINE
  5
5FD
330
1F
100
AcDbEntity
  8
VISIBLE
100
AcDbPolyline
 90
        2
 70
     0
 43
0.0
 10
248.2079062852415
 20
344.841979302585
 10
248.2403683825394
 20
345.0470277274257
  0
LWPOLYLINE
  5
5FE
330
1F
100
AcDbEntity
  8
VISIBLE
100
AcDbPolyline
 90
        2
 70
     0
 43
0.0
 10
248.1709354114443
 20
344.636288397581
 10
248.2079062852415
 20
344.841979302585
  0
LWPOLYLINE
  5
5FF
330
1F
100
AcDbEntity
  8
VISIBLE
100
AcDbPolyline
 90
        2
 70
     0
 43
0.0
 10
248.1293931446077
 20
344.4300916963864
 10
248.1709354114443
 20
344.636288397581
  0
LWPOLYLINE
  5
600
330
1F
100
AcDbEntity
  8
VISIBLE
100
AcDbPolyline
 90
        2
 70
     0
 43
0.0
 10
248.0832219148481
 20
344.2235301947476
 10
248.1293931446077
 20
344.4300916963864
  0
LWPOLYLINE
  5
601
330
1F
100
AcDbEntity
  8
VISIBLE
100
AcDbPolyline
 90
        2
 70
     0
 43
0.0
 10
248.032369502813
 20
344.01674899365
 10
248.0832219148481
 20
344.2235301947476
  0
LWPOLYLINE
  5
602
330
1F
100
AcDbEntity
  8
VISIBLE
100
AcDbPolyline
 90
        2
 70
     0
 43
0.0
 10
247.9767893353702
 20
343.8098970697137
 10
248.032369502813
 20
344.01674899365
  0
LWPOLYLINE
  5
603
330
1F
100
AcDbEntity
  8
VISIBLE
100
AcDbPolyline
 90
        2
 70
     0
 43
0.0
 10
247.9164407712187
 20
343.6031270227064
 10
247.9767893353702
 20
343.8098970697137
  0
LWPOLYLINE
  5
604
330
1F
100
AcDbEntity
  8
VISIBLE
100
AcDbPolyline
 90
        2
 70
     0
 43
0.0
 10
247.8512893744956
 20
343.3965948005207
 10
247.9164407712187
 20
343.6031270227064
  0
LWPOLYLINE
  5
605
330
1F
100
AcDbEntity
  8
VISIBLE
100
AcDbPolyline
 90
        2
 70
     0
 43
0.0
 10
247.7813071744507
 20
343.1904594021434
 10
247.8512893744956
 20
343.3965948005207
  0
LWPOLYLINE
  5
606
330
1F
100
AcDbEntity
  8
VISIBLE
100
AcDbPolyline
 90
        2
 70
     0
 43
0.0
 10
247.7064729092681
 20
342.9848825593195
 10
247.7813071744507
 20
343.1904594021434
  0
LWPOLYLINE
  5
607
330
1F
100
AcDbEntity
  8
VISIBLE
100
AcDbPolyline
 90
        2
 70
     0
 43
0.0
 10
247.6267722521426
 20
342.7800283977995
 10
247.7064729092681
 20
342.9848825593195
  0
LWPOLYLINE
  5
608
330
1F
100
AcDbEntity
  8
VISIBLE
100
AcDbPolyline
 90
        2
 70
     0
 43
0.0
 10
247.5421980177628
 20
342.5760630792376
 10
247.6267722521426
 20
342.7800283977995
  0
LWPOLYLINE
  5
609
330
1F
100
AcDbEntity
  8
VISIBLE
100
AcDbPolyline
 90
        2
 70
     0
 43
0.0
 10
247.4527503474209
 20
342.3731544249914
 10
247.5421980177628
 20
342.5760630792376
  0
LWPOLYLINE
  5
60A
330
1F
100
AcDbEntity
  8
VISIBLE
100
AcDbPolyline
 90
        2
 70
     0
 43
0.0
 10
247.3584368710529
 20
342.171471523254
 10
247.4527503474209
 20
342.3731544249914
  0
LWPOLYLINE
  5
60B
330
1F
100
AcDbEntity
  8
VISIBLE
100
AcDbPolyline
 90
        2
 70
     0
 43
0.0
 10
247.2592728446135
 20
341.9711843211159
 10
247.3584368710529
 20
342.171471523254
  0
LWPOLYLINE
  5
60C
330
1F
100
AcDbEntity
  8
VISIBLE
100
AcDbPolyline
 90
        2
 70
     0
 43
0.0
 10
247.155281261319
 20
341.7724632033245
 10
247.2592728446135
 20
341.9711843211159
  0
LWPOLYLINE
  5
60D
330
1F
100
AcDbEntity
  8
VISIBLE
100
AcDbPolyline
 90
        2
 70
     0
 43
0.0
 10
247.046492935427
 20
341.5754785596591
 10
247.155281261319
 20
341.7724632033245
  0
LWPOLYLINE
  5
60E
330
1F
100
AcDbEntity
  8
VISIBLE
100
AcDbPolyline
 90
        2
 70
     0
 43
0.0
 10
246.9329465573824
 20
341.380400342983
 10
247.046492935427
 20
341.5754785596591
  0
LWPOLYLINE
  5
60F
330
1F
100
AcDbEntity
  8
VISIBLE
100
AcDbPolyline
 90
        2
 70
     0
 43
0.0
 10
246.814688719336
 20
341.1873976201601
 10
246.9329465573824
 20
341.380400342983
  0
LWPOLYLINE
  5
610
330
1F
100
AcDbEntity
  8
VISIBLE
100
AcDbPolyline
 90
        2
 70
     0
 43
0.0
 10
246.6917739102285
 20
340.9966381181359
 10
246.814688719336
 20
341.1873976201601
  0
LWPOLYLINE
  5
611
330
1F
100
AcDbEntity
  8
VISIBLE
100
AcDbPolyline
 90
        2
 70
     0
 43
0.0
 10
246.5642644798364
 20
340.8082877675723
 10
246.6917739102285
 20
340.9966381181359
  0
LWPOLYLINE
  5
612
330
1F
100
AcDbEntity
  8
VISIBLE
100
AcDbPolyline
 90
        2
 70
     0
 43
0.0
 10
246.4322305713928
 20
340.6225102465004
 10
246.5642644798364
 20
340.8082877675723
  0
LWPOLYLINE
  5
613
330
1F
100
AcDbEntity
  8
VISIBLE
100
AcDbPolyline
 90
        2
 70
     0
 43
0.0
 10
246.2957500226151
 20
340.4394665265045
 10
246.4322305713928
 20
340.6225102465004
  0
LWPOLYLINE
  5
614
330
1F
100
AcDbEntity
  8
VISIBLE
100
AcDbPolyline
 90
        2
 70
     0
 43
0.0
 10
246.1549082352017
 20
340.2593144239778
 10
246.2957500226151
 20
340.4394665265045
  0
LWPOLYLINE
  5
615
330
1F
100
AcDbEntity
  8
VISIBLE
100
AcDbPolyline
 90
        2
 70
     0
 43
0.0
 10
246.0097980130972
 20
340.082208158998
 10
246.1549082352017
 20
340.2593144239778
  0
LWPOLYLINE
  5
616
330
1F
100
AcDbEntity
  8
VISIBLE
100
AcDbPolyline
 90
        2
 70
     0
 43
0.0
 10
245.8605193700514
 20
339.9082979243467
 10
246.0097980130972
 20
340.082208158998
  0
LWPOLYLINE
  5
617
330
1F
100
AcDbEntity
  8
VISIBLE
100
AcDbPolyline
 90
        2
 70
     0
 43
0.0
 10
245.7071793072408
 20
339.7377294671563
 10
245.8605193700514
 20
339.9082979243467
  0
LWPOLYLINE
  5
618
330
1F
100
AcDbEntity
  8
VISIBLE
100
AcDbPolyline
 90
        2
 70
     0
 43
0.0
 10
245.5498915619396
 20
339.5706436855994
 10
245.7071793072408
 20
339.7377294671563
  0
LWPOLYLINE
  5
619
330
1F
100
AcDbEntity
  8
VISIBLE
100
AcDbPolyline
 90
        2
 70
     0
 43
0.0
 10
245.388776328457
 20
339.4071762429425
 10
245.5498915619396
 20
339.5706436855994
  0
LWPOLYLINE
  5
61A
330
1F
100
AcDbEntity
  8
VISIBLE
100
AcDbPolyline
 90
        2
 70
     0
 43
0.0
 10
245.2239599527641
 20
339.2474572011742
 10
245.388776328457
 20
339.4071762429425
  0
LWPOLYLINE
  5
61B
330
1F
100
AcDbEntity
  8
VISIBLE
100
AcDbPolyline
 90
        2
 70
     0
 43
0.0
 10
245.0555746024354
 20
339.0916106762786
 10
245.2239599527641
 20
339.2474572011742
  0
LWPOLYLINE
  5
61C
330
1F
100
AcDbEntity
  8
VISIBLE
100
AcDbPolyline
 90
        2
 70
     0
 43
0.0
 10
244.8837579137134
 20
338.9397545170737
 10
245.0555746024354
 20
339.0916106762786
  0
LWPOLYLINE
  5
61D
330
1F
100
AcDbEntity
  8
VISIBLE
100
AcDbPolyline
 90
        2
 70
     0
 43
0.0
 10
244.7086526176742
 20
338.7920000093563
 10
244.8837579137134
 20
338.9397545170737
  0
LWPOLYLINE
  5
61E
330
1F
100
AcDbEntity
  8
VISIBLE
100
AcDbPolyline
 90
        2
 70
     0
 43
0.0
 10
244.5304061476179
 20
338.6484516069044
 10
244.7086526176742
 20
338.7920000093563
  0
LWPOLYLINE
  5
61F
330
1F
100
AcDbEntity
  8
VISIBLE
100
AcDbPolyline
 90
        2
 70
     0
 43
0.0
 10
244.3491702299388
 20
338.5092066906889
 10
244.5304061476179
 20
338.6484516069044
  0
LWPOLYLINE
  5
620
330
1F
100
AcDbEntity
  8
VISIBLE
100
AcDbPolyline
 90
        2
 70
     0
 43
0.0
 10
244.1651004608334
 20
338.3743553574242
 10
244.3491702299388
 20
338.5092066906889
  0
LWPOLYLINE
  5
621
330
1F
100
AcDbEntity
  8
VISIBLE
100
AcDbPolyline
 90
        2
 70
     0
 43
0.0
 10
243.9783558712899
 20
338.2439802383676
 10
244.1651004608334
 20
338.3743553574242
  0
LWPOLYLINE
  5
622
330
1F
100
AcDbEntity
  8
VISIBLE
100
AcDbPolyline
 90
        2
 70
     0
 43
0.0
 10
243.78909848286
 20
338.1181563490446
 10
243.9783558712899
 20
338.2439802383676
  0
LWPOLYLINE
  5
623
330
1F
100
AcDbEntity
  8
VISIBLE
100
AcDbPolyline
 90
        2
 70
     0
 43
0.0
 10
243.5974928567485
 20
337.9969509703444
 10
243.78909848286
 20
338.1181563490446
  0
LWPOLYLINE
  5
624
330
1F
100
AcDbEntity
  8
VISIBLE
100
AcDbPolyline
 90
        2
 70
     0
 43
0.0
 10
243.4037056387708
 20
337.8804235611959
 10
243.5974928567485
 20
337.9969509703444
  0
LWPOLYLINE
  5
625
330
1F
100
AcDbEntity
  8
VISIBLE
100
AcDbPolyline
 90
        2
 70
     0
 43
0.0
 10
243.2079051027075
 20
337.7686257028001
 10
243.4037056387708
 20
337.8804235611959
  0
LWPOLYLINE
  5
626
330
1F
100
AcDbEntity
  8
VISIBLE
100
AcDbPolyline
 90
        2
 70
     0
 43
0.0
 10
243.0102606945585
 20
337.6616010741734
 10
243.2079051027075
 20
337.7686257028001
  0
LWPOLYLINE
  5
627
330
1F
100
AcDbEntity
  8
VISIBLE
100
AcDbPolyline
 90
        2
 70
     0
 43
0.0
 10
242.8109425801318
 20
337.5593854585276
 10
243.0102606945585
 20
337.6616010741734
  0
LWPOLYLINE
  5
628
330
1F
100
AcDbEntity
  8
VISIBLE
100
AcDbPolyline
 90
        2
 70
     0
 43
0.0
 10
242.6101211983282
 20
337.4620067798117
 10
242.8109425801318
 20
337.5593854585276
  0
LWPOLYLINE
  5
629
330
1F
100
AcDbEntity
  8
VISIBLE
100
AcDbPolyline
 90
        2
 70
     0
 43
0.0
 10
242.4079668223805
 20
337.3694851685367
 10
242.6101211983282
 20
337.4620067798117
  0
LWPOLYLINE
  5
62A
330
1F
100
AcDbEntity
  8
VISIBLE
100
AcDbPolyline
 90
        2
 70
     0
 43
0.0
 10
242.2046491311922
 20
337.2818330558205
 10
242.4079668223805
 20
337.3694851685367
  0
LWPOLYLINE
  5
62B
330
1F
100
AcDbEntity
  8
VISIBLE
100
AcDbPolyline
 90
        2
 70
     0
 43
0.0
 10
242.0003367927836
 20
337.1990552944246
 10
242.2046491311922
 20
337.2818330558205
  0
LWPOLYLINE
  5
62C
330
1F
100
AcDbEntity
  8
VISIBLE
100
AcDbPolyline
 90
        2
 70
     0
 43
0.0
 10
241.7951970617113
 20
337.121149305397
 10
242.0003367927836
 20
337.1990552944246
  0
LWPOLYLINE
  5
62D
330
1F
100
AcDbEntity
  8
VISIBLE
100
AcDbPolyline
 90
        2
 70
     0
 43
0.0
 10
241.5893953921645
 20
337.0481052488054
 10
241.7951970617113
 20
337.121149305397
  0
LWPOLYLINE
  5
62E
330
1F
100
AcDbEntity
  8
VISIBLE
100
AcDbPolyline
 90
        2
 70
     0
 43
0.0
 10
241.3830950682791
 20
336.9799062169263
 10
241.5893953921645
 20
337.0481052488054
  0
LWPOLYLINE
  5
62F
330
1F
100
AcDbEntity
  8
VISIBLE
100
AcDbPolyline
 90
        2
 70
     0
 43
0.0
 10
241.1764568530304
 20
336.9165284481608
 10
241.3830950682791
 20
336.9799062169263
  0
LWPOLYLINE
  5
630
330
1F
100
AcDbEntity
  8
VISIBLE
100
AcDbPolyline
 90
        2
 70
     0
 43
0.0
 10
240.9696386568895
 20
336.8579415598673
 10
241.1764568530304
 20
336.9165284481608
  0
LWPOLYLINE
  5
631
330
1F
100
AcDbEntity
  8
VISIBLE
100
AcDbPolyline
 90
        2
 70
     0
 43
0.0
 10
240.7627952272463
 20
336.8041087982485
 10
240.9696386568895
 20
336.8579415598673
  0
LWPOLYLINE
  5
632
330
1F
100
AcDbEntity
  8
VISIBLE
100
AcDbPolyline
 90
        2
 70
     0
 43
0.0
 10
240.556077859417
 20
336.7549873033848
 10
240.7627952272463
 20
336.8041087982485
  0
LWPOLYLINE
  5
633
330
1F
100
AcDbEntity
  8
VISIBLE
100
AcDbPolyline
 90
        2
 70
     0
 43
0.0
 10
240.3496341298744
 20
336.7105283874894
 10
240.556077859417
 20
336.7549873033848
  0
LWPOLYLINE
  5
634
330
1F
100
AcDbEntity
  8
VISIBLE
100
AcDbPolyline
 90
        2
 70
     0
 43
0.0
 10
240.1436076521628
 20
336.670677824456
 10
240.3496341298744
 20
336.7105283874894
  0
LWPOLYLINE
  5
635
330
1F
100
AcDbEntity
  8
VISIBLE
100
AcDbPolyline
 90
        2
 70
     0
 43
0.0
 10
239.9381378557833
 20
336.6353761487847
 10
240.1436076521628
 20
336.670677824456
  0
LWPOLYLINE
  5
636
330
1F
100
AcDbEntity
  8
VISIBLE
100
AcDbPolyline
 90
        2
 70
     0
 43
0.0
 10
239.733359788173
 20
336.604558961998
 10
239.9381378557833
 20
336.6353761487847
  0
LWPOLYLINE
  5
637
330
1F
100
AcDbEntity
  8
VISIBLE
100
AcDbPolyline
 90
        2
 70
     0
 43
0.0
 10
239.5294039397385
 20
336.5781572447059
 10
239.733359788173
 20
336.604558961998
  0
LWPOLYLINE
  5
638
330
1F
100
AcDbEntity
  8
VISIBLE
100
AcDbPolyline
 90
        2
 70
     0
 43
0.0
 10
239.3263960917631
 20
336.5560976725339
 10
239.5294039397385
 20
336.5781572447059
  0
LWPOLYLINE
  5
639
330
1F
100
AcDbEntity
  8
VISIBLE
100
AcDbPolyline
 90
        2
 70
     0
 43
0.0
 10
239.1244571868592
 20
336.5383029341958
 10
239.3263960917631
 20
336.5560976725339
  0
LWPOLYLINE
  5
63A
330
1F
100
AcDbEntity
  8
VISIBLE
100
AcDbPolyline
 90
        2
 70
     0
 43
0.0
 10
238.9237032215158
 20
336.5246920500724
 10
239.1244571868592
 20
336.5383029341958
  0
LWPOLYLINE
  5
63B
330
1F
100
AcDbEntity
  8
VISIBLE
100
AcDbPolyline
 90
        2
 70
     0
 43
0.0
 10
238.7242451601733
 20
336.515180689744
 10
238.9237032215158
 20
336.5246920500724
  0
LWPOLYLINE
  5
63C
330
1F
100
AcDbEntity
  8
VISIBLE
100
AcDbPolyline
 90
        2
 70
     0
 43
0.0
 10
238.5261888701518
 20
336.509681487019
 10
238.7242451601733
 20
336.515180689744
  0
LWPOLYLINE
  5
63D
330
1F
100
AcDbEntity
  8
VISIBLE
100
AcDbPolyline
 90
        2
 70
     0
 43
0.0
 10
238.4277180677115
 20
336.508408389405
 10
238.5261888701518
 20
336.509681487019
  0
LWPOLYLINE
  5
63E
330
1F
100
AcDbEntity
  8
VISIBLE
100
AcDbPolyline
 90
        2
 70
     0
 43
0.0
 10
238.3786273517448
 20
336.5081359619316
 10
238.4277180677115
 20
336.508408389405
  0
LWPOLYLINE
  5
63F
330
1F
100
AcDbEntity
  8
VISIBLE
100
AcDbPolyline
 90
        2
 70
     0
 43
0.0
 10
238.3541188171988
 20
336.5080901454238
 10
238.3786273517448
 20
336.5081359619316
  0
LWPOLYLINE
  5
640
330
1F
100
AcDbEntity
  8
VISIBLE
100
AcDbPolyline
 90
        2
 70
     0
 43
0.0
 10
238.3479955504879
 20
336.5080880768884
 10
238.3541188171988
 20
336.5080901454238
  0
LWPOLYLINE
  5
641
330
1F
100
AcDbEntity
  8
VISIBLE
100
AcDbPolyline
 90
        2
 70
     0
 43
0.0
 10
238.3472015898084
 20
336.5080880718791
 10
238.3479955504879
 20
336.5080880768884
  0
LWPOLYLINE
  5
642
330
1F
100
AcDbEntity
  8
VISIBLE
100
AcDbPolyline
 90
        2
 70
     0
 43
0.0
 10
238.3444389726114
 20
336.5080880718791
 10
238.3472015898084
 20
336.5080880718791
  0
LWPOLYLINE
  5
643
330
1F
100
AcDbEntity
  8
VISIBLE
100
AcDbPolyline
 90
        2
 70
     0
 43
0.0
 10
238.3389137382175
 20
336.5080880718791
 10
238.3444389726114
 20
336.5080880718791
  0
LWPOLYLINE
  5
644
330
1F
100
AcDbEntity
  8
VISIBLE
100
AcDbPolyline
 90
        2
 70
     0
 43
0.0
 10
238.3278632694296
 20
336.5080880718791
 10
238.3389137382175
 20
336.5080880718791
  0
LWPOLYLINE
  5
645
330
1F
100
AcDbEntity
  8
VISIBLE
100
AcDbPolyline
 90
        2
 70
     0
 43
0.0
 10
238.3057623318538
 20
336.5080880718791
 10
238.3278632694296
 20
336.5080880718791
  0
LWPOLYLINE
  5
646
330
1F
100
AcDbEntity
  8
VISIBLE
100
AcDbPolyline
 90
        2
 70
     0
 43
0.0
 10
238.2173585815507
 20
336.5080880718791
 10
238.3057623318538
 20
336.5080880718791
  0
LWPOLYLINE
  5
647
330
1F
100
AcDbEntity
  8
VISIBLE
100
AcDbPolyline
 90
        2
 70
     0
 43
0.0
 10
232.5595185621496
 20
336.5080880718791
 10
238.2173585815507
 20
336.5080880718791
  0
LWPOLYLINE
  5
648
330
1F
100
AcDbEntity
  8
VISIBLE
100
AcDbPolyline
 90
        2
 70
     0
 43
0.0
 10
187.296798406941
 20
336.5080880718791
 10
232.5595185621496
 20
336.5080880718791
  0
LWPOLYLINE
  5
649
330
1F
100
AcDbEntity
  8
VISIBLE
100
AcDbPolyline
 90
        2
 70
     0
 43
0.0
 10
175.9811183681389
 20
336.5080880718791
 10
187.296798406941
 20
336.5080880718791
  0
LWPOLYLINE
  5
64A
330
1F
100
AcDbEntity
  8
VISIBLE
100
AcDbPolyline
 90
        2
 70
     0
 43
0.0
 10
174.5666583632887
 20
336.5080880718791
 10
175.9811183681389
 20
336.5080880718791
  0
LWPOLYLINE
  5
64B
330
1F
100
AcDbEntity
  8
VISIBLE
100
AcDbPolyline
 90
        2
 70
     0
 43
0.0
 10
173.8594283608635
 20
336.5080880718791
 10
174.5666583632887
 20
336.5080880718791
  0
LWPOLYLINE
  5
64C
330
1F
100
AcDbEntity
  8
VISIBLE
100
AcDbPolyline
 90
        2
 70
     0
 43
0.0
 10
173.505813359651
 20
336.5080880718791
 10
173.8594283608635
 20
336.5080880718791
  0
LWPOLYLINE
  5
64D
330
1F
100
AcDbEntity
  8
VISIBLE
100
AcDbPolyline
 90
        2
 70
     0
 43
0.0
 10
173.4174096093478
 20
336.5080880718791
 10
173.505813359651
 20
336.5080880718791
  0
LWPOLYLINE
  5
64E
330
1F
100
AcDbEntity
  8
VISIBLE
100
AcDbPolyline
 90
        2
 70
     0
 43
0.0
 10
173.3732077341962
 20
336.5080880718791
 10
173.4174096093478
 20
336.5080880718791
  0
LWPOLYLINE
  5
64F
330
1F
100
AcDbEntity
  8
VISIBLE
100
AcDbPolyline
 90
        2
 70
     0
 43
0.0
 10
173.3511067966205
 20
336.5080880718791
 10
173.3732077341962
 20
336.5080880718791
  0
LWPOLYLINE
  5
650
330
1F
100
AcDbEntity
  8
VISIBLE
100
AcDbPolyline
 90
        2
 70
     0
 43
0.0
 10
173.3483441794235
 20
336.5080880718791
 10
173.3511067966205
 20
336.5080880718791
  0
LWPOLYLINE
  5
651
330
1F
100
AcDbEntity
  8
VISIBLE
100
AcDbPolyline
 90
        2
 70
     0
 43
0.0
 10
173.3473885056494
 20
336.5080880760992
 10
173.3483441794235
 20
336.5080880718791
  0
LWPOLYLINE
  5
652
330
1F
100
AcDbEntity
  8
VISIBLE
100
AcDbPolyline
 90
        2
 70
     0
 43
0.0
 10
173.3466231829776
 20
336.5080881276194
 10
173.3473885056494
 20
336.5080880760992
  0
LWPOLYLINE
  5
653
330
1F
100
AcDbEntity
  8
VISIBLE
100
AcDbPolyline
 90
        2
 70
     0
 43
0.0
 10
173.3450924648832
 20
336.5080884063945
 10
173.3466231829776
 20
336.5080881276194
  0
LWPOLYLINE
  5
654
330
1F
100
AcDbEntity
  8
VISIBLE
100
AcDbPolyline
 90
        2
 70
     0
 43
0.0
 10
173.3205878185965
 20
336.5081247686272
 10
173.3450924648832
 20
336.5080884063945
  0
LWPOLYLINE
  5
655
330
1F
100
AcDbEntity
  8
VISIBLE
100
AcDbPolyline
 90
        2
 70
     0
 43
0.0
 10
173.123679287629
 20
336.5105971808398
 10
173.3205878185965
 20
336.5081247686272
  0
LWPOLYLINE
  5
656
330
1F
100
AcDbEntity
  8
VISIBLE
100
AcDbPolyline
 90
        2
 70
     0
 43
0.0
 10
172.925291003324
 20
336.5170126364317
 10
173.123679287629
 20
336.5105971808398
  0
LWPOLYLINE
  5
657
330
1F
100
AcDbEntity
  8
VISIBLE
100
AcDbPolyline
 90
        2
 70
     0
 43
0.0
 10
172.7255248782772
 20
336.5274606259586
 10
172.925291003324
 20
336.5170126364317
  0
LWPOLYLINE
  5
658
330
1F
100
AcDbEntity
  8
VISIBLE
100
AcDbPolyline
 90
        2
 70
     0
 43
0.0
 10
172.5244879585637
 20
336.5420278441076
 10
172.7255248782772
 20
336.5274606259586
  0
LWPOLYLINE
  5
659
330
1F
100
AcDbEntity
  8
VISIBLE
100
AcDbPolyline
 90
        2
 70
     0
 43
0.0
 10
172.3222923742005
 20
336.5607978775262
 10
172.5244879585637
 20
336.5420278441076
  0
LWPOLYLINE
  5
65A
330
1F
100
AcDbEntity
  8
VISIBLE
100
AcDbPolyline
 90
        2
 70
     0
 43
0.0
 10
172.1190552693359
 20
336.5838508890928
 10
172.3222923742005
 20
336.5607978775262
  0
LWPOLYLINE
  5
65B
330
1F
100
AcDbEntity
  8
VISIBLE
100
AcDbPolyline
 90
        2
 70
     0
 43
0.0
 10
171.9148987114223
 20
336.6112633000105
 10
172.1190552693359
 20
336.5838508890928
  0
LWPOLYLINE
  5
65C
330
1F
100
AcDbEntity
  8
VISIBLE
100
AcDbPolyline
 90
        2
 70
     0
 43
0.0
 10
171.7099495787199
 20
336.6431074712039
 10
171.9148987114223
 20
336.6112633000105
  0
LWPOLYLINE
  5
65D
330
1F
100
AcDbEntity
  8
VISIBLE
100
AcDbPolyline
 90
        2
 70
     0
 43
0.0
 10
171.5043394255929
 20
336.6794513855921
 10
171.7099495787199
 20
336.6431074712039
  0
LWPOLYLINE
  5
65E
330
1F
100
AcDbEntity
  8
VISIBLE
100
AcDbPolyline
 90
        2
 70
     0
 43
0.0
 10
171.2982043251707
 20
336.7203583328954
 10
171.5043394255929
 20
336.6794513855921
  0
LWPOLYLINE
  5
65F
330
1F
100
AcDbEntity
  8
VISIBLE
100
AcDbPolyline
 90
        2
 70
     0
 43
0.0
 10
171.091684689083
 20
336.7658865987114
 10
171.2982043251707
 20
336.7203583328954
  0
LWPOLYLINE
  5
660
330
1F
100
AcDbEntity
  8
VISIBLE
100
AcDbPolyline
 90
        2
 70
     0
 43
0.0
 10
170.8849250641175
 20
336.8160891596584
 10
171.091684689083
 20
336.7658865987114
  0
LWPOLYLINE
  5
661
330
1F
100
AcDbEntity
  8
VISIBLE
100
AcDbPolyline
 90
        2
 70
     0
 43
0.0
 10
170.6780739057969
 20
336.8710133864413
 10
170.8849250641175
 20
336.8160891596584
  0
LWPOLYLINE
  5
662
330
1F
100
AcDbEntity
  8
VISIBLE
100
AcDbPolyline
 90
        2
 70
     0
 43
0.0
 10
170.4712833290376
 20
336.9307007567349
 10
170.6780739057969
 20
336.8710133864413
  0
LWPOLYLINE
  5
663
330
1F
100
AcDbEntity
  8
VISIBLE
100
AcDbPolyline
 90
        2
 70
     0
 43
0.0
 10
170.2647088362137
 20
336.995186579803
 10
170.4712833290376
 20
336.9307007567349
  0
LWPOLYLINE
  5
664
330
1F
100
AcDbEntity
  8
VISIBLE
100
AcDbPolyline
 90
        2
 70
     0
 43
0.0
 10
170.0585090231302
 20
337.0644997347826
 10
170.2647088362137
 20
336.995186579803
  0
LWPOLYLINE
  5
665
330
1F
100
AcDbEntity
  8
VISIBLE
100
AcDbPolyline
 90
        2
 70
     0
 43
0.0
 10
169.8528452635827
 20
337.138662424559
 10
170.0585090231302
 20
337.0644997347826
  0
LWPOLYLINE
  5
666
330
1F
100
AcDbEntity
  8
VISIBLE
100
AcDbPolyline
 90
        2
 70
     0
 43
0.0
 10
169.6478813733667
 20
337.217689947125
 10
169.8528452635827
 20
337.138662424559
  0
LWPOLYLINE
  5
667
330
1F
100
AcDbEntity
  8
VISIBLE
100
AcDbPolyline
 90
        2
 70
     0
 43
0.0
 10
169.4437832547795
 20
337.301590486283
 10
169.6478813733667
 20
337.217689947125
  0
LWPOLYLINE
  5
668
330
1F
100
AcDbEntity
  8
VISIBLE
100
AcDbPolyline
 90
        2
 70
     0
 43
0.0
 10
169.2407185228403
 20
337.3903649234772
 10
169.4437832547795
 20
337.301590486283
  0
LWPOLYLINE
  5
669
330
1F
100
AcDbEntity
  8
VISIBLE
100
AcDbPolyline
 90
        2
 70
     0
 43
0.0
 10
169.0388561146339
 20
337.4840066724685
 10
169.2407185228403
 20
337.3903649234772
  0
LWPOLYLINE
  5
66A
330
1F
100
AcDbEntity
  8
VISIBLE
100
AcDbPolyline
 90
        2
 70
     0
 43
0.0
 10
168.8383658833541
 20
337.5825015384601
 10
169.0388561146339
 20
337.4840066724685
  0
LWPOLYLINE
  5
66B
330
1F
100
AcDbEntity
  8
VISIBLE
100
AcDbPolyline
 90
        2
 70
     0
 43
0.0
 10
168.6394181787903
 20
337.6858276031604
 10
168.8383658833541
 20
337.5825015384601
  0
LWPOLYLINE
  5
66C
330
1F
100
AcDbEntity
  8
VISIBLE
100
AcDbPolyline
 90
        2
 70
     0
 43
0.0
 10
168.4421834161568
 20
337.7939551371349
 10
168.6394181787903
 20
337.6858276031604
  0
LWPOLYLINE
  5
66D
330
1F
100
AcDbEntity
  8
VISIBLE
100
AcDbPolyline
 90
        2
 70
     0
 43
0.0
 10
168.2468316353052
 20
337.9068465406388
 10
168.4421834161568
 20
337.7939551371349
  0
LWPOLYLINE
  5
66E
330
1F
100
AcDbEntity
  8
VISIBLE
100
AcDbPolyline
 90
        2
 70
     0
 43
0.0
 10
168.0535320524928
 20
338.0244563139521
 10
168.2468316353052
 20
337.9068465406388
  0
LWPOLYLINE
  5
66F
330
1F
100
AcDbEntity
  8
VISIBLE
100
AcDbPolyline
 90
        2
 70
     0
 43
0.0
 10
167.8624526069913
 20
338.1467310580485
 10
168.0535320524928
 20
338.0244563139521
  0
LWPOLYLINE
  5
670
330
1F
100
AcDbEntity
  8
VISIBLE
100
AcDbPolyline
 90
        2
 70
     0
 43
0.0
 10
167.6737595049146
 20
338.2736095062321
 10
167.8624526069913
 20
338.1467310580485
  0
LWPOLYLINE
  5
671
330
1F
100
AcDbEntity
  8
VISIBLE
100
AcDbPolyline
 90
        2
 70
     0
 43
0.0
 10
167.4876167627199
 20
338.4050225871582
 10
167.6737595049146
 20
338.2736095062321
  0
LWPOLYLINE
  5
672
330
1F
100
AcDbEntity
  8
VISIBLE
100
AcDbPolyline
 90
        2
 70
     0
 43
0.0
 10
167.3041857528915
 20
338.5408935194387
 10
167.4876167627199
 20
338.4050225871582
  0
LWPOLYLINE
  5
673
330
1F
100
AcDbEntity
  8
VISIBLE
100
AcDbPolyline
 90
        2
 70
     0
 43
0.0
 10
167.1236247543433
 20
338.6811379377991
 10
167.3041857528915
 20
338.5408935194387
  0
LWPOLYLINE
  5
674
330
1F
100
AcDbEntity
  8
VISIBLE
100
AcDbPolyline
 90
        2
 70
     0
 43
0.0
 10
166.9460885100907
 20
338.8256640505241
 10
167.1236247543433
 20
338.6811379377991
  0
LWPOLYLINE
  5
675
330
1F
100
AcDbEntity
  8
VISIBLE
100
AcDbPolyline
 90
        2
 70
     0
 43
0.0
 10
166.7717277947183
 20
338.9743728276947
 10
166.9460885100907
 20
338.8256640505241
  0
LWPOLYLINE
  5
676
330
1F
100
AcDbEntity
  8
VISIBLE
100
AcDbPolyline
 90
        2
 70
     0
 43
0.0
 10
166.6006889941367
 20
339.1271582194836
 10
166.7717277947183
 20
338.9743728276947
  0
LWPOLYLINE
  5
677
330
1F
100
AcDbEntity
  8
VISIBLE
100
AcDbPolyline
 90
        2
 70
     0
 43
0.0
 10
166.4331137000524
 20
339.2839074035503
 10
166.6006889941367
 20
339.1271582194836
  0
LWPOLYLINE
  5
678
330
1F
100
AcDbEntity
  8
VISIBLE
100
AcDbPolyline
 90
        2
 70
     0
 43
0.0
 10
166.269138321487
 20
339.4445010603515
 10
166.4331137000524
 20
339.2839074035503
  0
LWPOLYLINE
  5
679
330
1F
100
AcDbEntity
  8
VISIBLE
100
AcDbPolyline
 90
        2
 70
     0
 43
0.0
 10
166.1088937155733
 20
339.6088136749696
 10
166.269138321487
 20
339.4445010603515
  0
LWPOLYLINE
  5
67A
330
1F
100
AcDbEntity
  8
VISIBLE
100
AcDbPolyline
 90
        2
 70
     0
 43
0.0
 10
165.9525048397201
 20
339.7767138638646
 10
166.1088937155733
 20
339.6088136749696
  0
LWPOLYLINE
  5
67B
330
1F
100
AcDbEntity
  8
VISIBLE
100
AcDbPolyline
 90
        2
 70
     0
 43
0.0
 10
165.8000904270853
 20
339.9480647247609
 10
165.9525048397201
 20
339.7767138638646
  0
LWPOLYLINE
  5
67C
330
1F
100
AcDbEntity
  8
VISIBLE
100
AcDbPolyline
 90
        2
 70
     0
 43
0.0
 10
165.6517626871268
 20
340.1227242077175
 10
165.8000904270853
 20
339.9480647247609
  0
LWPOLYLINE
  5
67D
330
1F
100
AcDbEntity
  8
VISIBLE
100
AcDbPolyline
 90
        2
 70
     0
 43
0.0
 10
165.5076270328082
 20
340.3005455052739
 10
165.6517626871268
 20
340.1227242077175
  0
LWPOLYLINE
  5
67E
330
1F
100
AcDbEntity
  8
VISIBLE
100
AcDbPolyline
 90
        2
 70
     0
 43
0.0
 10
165.3677818358394
 20
340.4813774594359
 10
165.5076270328082
 20
340.3005455052739
  0
LWPOLYLINE
  5
67F
330
1F
100
AcDbEntity
  8
VISIBLE
100
AcDbPolyline
 90
        2
 70
     0
 43
0.0
 10
165.2323182111131
 20
340.665064983153
 10
165.3677818358394
 20
340.4813774594359
  0
LWPOLYLINE
  5
680
330
1F
100
AcDbEntity
  8
VISIBLE
100
AcDbPolyline
 90
        2
 70
     0
 43
0.0
 10
165.1013198312783
 20
340.8514494938584
 10
165.2323182111131
 20
340.665064983153
  0
LWPOLYLINE
  5
681
330
1F
100
AcDbEntity
  8
VISIBLE
100
AcDbPolyline
 90
        2
 70
     0
 43
0.0
 10
164.9748627721599
 20
341.0403693565733
 10
165.1013198312783
 20
340.8514494938584
  0
LWPOLYLINE
  5
682
330
1F
100
AcDbEntity
  8
VISIBLE
100
AcDbPolyline
 90
        2
 70
     0
 43
0.0
 10
164.853015389501
 20
341.2316603340453
 10
164.9748627721599
 20
341.0403693565733
  0
LWPOLYLINE
  5
683
330
1F
100
AcDbEntity
  8
VISIBLE
100
AcDbPolyline
 90
        2
 70
     0
 43
0.0
 10
164.7358382272703
 20
341.4251560413716
 10
164.853015389501
 20
341.2316603340453
  0
LWPOLYLINE
  5
684
330
1F
100
AcDbEntity
  8
VISIBLE
100
AcDbPolyline
 90
        2
 70
     0
 43
0.0
 10
164.6233839575438
 20
341.6206884025728
 10
164.7358382272703
 20
341.4251560413716
  0
LWPOLYLINE
  5
685
330
1F
100
AcDbEntity
  8
VISIBLE
100
AcDbPolyline
 90
        2
 70
     0
 43
0.0
 10
164.515697351743
 20
341.8180881066092
 10
164.6233839575438
 20
341.6206884025728
  0
LWPOLYLINE
  5
686
330
1F
100
AcDbEntity
  8
VISIBLE
100
AcDbPolyline
 90
        2
 70
     0
 43
0.0
 10
164.4128152827896
 20
342.0171850603966
 10
164.515697351743
 20
341.8180881066092
  0
LWPOLYLINE
  5
687
330
1F
100
AcDbEntity
  8
VISIBLE
100
AcDbPolyline
 90
        2
 70
     0
 43
0.0
 10
164.3147667575271
 20
342.2178088364446
 10
164.4128152827896
 20
342.0171850603966
  0
LWPOLYLINE
  5
688
330
1F
100
AcDbEntity
  8
VISIBLE
100
AcDbPolyline
 90
        2
 70
     0
 43
0.0
 10
164.2215729785569
 20
342.4197891128472
 10
164.3147667575271
 20
342.2178088364446
  0
LWPOLYLINE
  5
689
330
1F
100
AcDbEntity
  8
VISIBLE
100
AcDbPolyline
 90
        2
 70
     0
 43
0.0
 10
164.1332474344538
 20
342.622956103464
 10
164.2215729785569
 20
342.4197891128472
  0
LWPOLYLINE
  5
68A
330
1F
100
AcDbEntity
  8
VISIBLE
100
AcDbPolyline
 90
        2
 70
     0
 43
0.0
 10
164.0497960171509
 20
342.8271409762603
 10
164.1332474344538
 20
342.622956103464
  0
LWPOLYLINE
  5
68B
330
1F
100
AcDbEntity
  8
VISIBLE
100
AcDbPolyline
 90
        2
 70
     0
 43
0.0
 10
163.9712171651312
 20
343.0321762579254
 10
164.0497960171509
 20
342.8271409762603
  0
LWPOLYLINE
  5
68C
330
1F
100
AcDbEntity
  8
VISIBLE
100
AcDbPolyline
 90
        2
 70
     0
 43
0.0
 10
163.8975020309267
 20
343.2378962230365
 10
163.9712171651312
 20
343.0321762579254
  0
LWPOLYLINE
  5
68D
330
1F
100
AcDbEntity
  8
VISIBLE
100
AcDbPolyline
 90
        2
 70
     0
 43
0.0
 10
163.828634671305
 20
343.4441372662112
 10
163.8975020309267
 20
343.2378962230365
  0
LWPOLYLINE
  5
68E
330
1F
100
AcDbEntity
  8
VISIBLE
100
AcDbPolyline
 90
        2
 70
     0
 43
0.0
 10
163.7645922584261
 20
343.6507382558562
 10
163.828634671305
 20
343.4441372662112
  0
LWPOLYLINE
  5
68F
330
1F
100
AcDbEntity
  8
VISIBLE
100
AcDbPolyline
 90
        2
 70
     0
 43
0.0
 10
163.7053453101719
 20
343.8575408683056
 10
163.7645922584261
 20
343.6507382558562
  0
LWPOLYLINE
  5
690
330
1F
100
AcDbEntity
  8
VISIBLE
100
AcDbPolyline
 90
        2
 70
     0
 43
0.0
 10
163.6508579377883
 20
344.0643899013218
 10
163.7053453101719
 20
343.8575408683056
  0
LWPOLYLINE
  5
691
330
1F
100
AcDbEntity
  8
VISIBLE
100
AcDbPolyline
 90
        2
 70
     0
 43
0.0
 10
163.6010881089395
 20
344.2711335661122
 10
163.6508579377883
 20
344.0643899013218
  0
LWPOLYLINE
  5
692
330
1F
100
AcDbEntity
  8
VISIBLE
100
AcDbPolyline
 90
        2
 70
     0
 43
0.0
 10
163.5559879242516
 20
344.477623757202
 10
163.6010881089395
 20
344.2711335661122
  0
LWPOLYLINE
  5
693
330
1F
100
AcDbEntity
  8
VISIBLE
100
AcDbPolyline
 90
        2
 70
     0
 43
0.0
 10
163.5155039054136
 20
344.6837162996751
 10
163.5559879242516
 20
344.477623757202
  0
LWPOLYLINE
  5
694
330
1F
100
AcDbEntity
  8
VISIBLE
100
AcDbPolyline
 90
        2
 70
     0
 43
0.0
 10
163.4795772929207
 20
344.8892711734742
 10
163.5155039054136
 20
344.6837162996751
  0
LWPOLYLINE
  5
695
330
1F
100
AcDbEntity
  8
VISIBLE
100
AcDbPolyline
 90
        2
 70
     0
 43
0.0
 10
163.4481443515654
 20
345.0941527146154
 10
163.4795772929207
 20
344.8892711734742
  0
LWPOLYLINE
  5
696
330
1F
100
AcDbEntity
  8
VISIBLE
100
AcDbPolyline
 90
        2
 70
     0
 43
0.0
 10
163.4211366818307
 20
345.2982297933315
 10
163.4481443515654
 20
345.0941527146154
  0
LWPOLYLINE
  5
697
330
1F
100
AcDbEntity
  8
VISIBLE
100
AcDbPolyline
 90
        2
 70
     0
 43
0.0
 10
163.398481535387
 20
345.5013759693106
 10
163.4211366818307
 20
345.2982297933315
  0
LWPOLYLINE
  5
698
330
1F
100
AcDbEntity
  8
VISIBLE
100
AcDbPolyline
 90
        2
 70
     0
 43
0.0
 10
163.380102132969
 20
345.703469624336
 10
163.398481535387
 20
345.5013759693106
  0
LWPOLYLINE
  5
699
330
1F
100
AcDbEntity
  8
VISIBLE
100
AcDbPolyline
 90
        2
 70
     0
 43
0.0
 10
163.3659179829782
 20
345.9043940727595
 10
163.380102132969
 20
345.703469624336
  0
LWPOLYLINE
  5
69A
330
1F
100
AcDbEntity
  8
VISIBLE
100
AcDbPolyline
 90
        2
 70
     0
 43
0.0
 10
163.3558451992493
 20
346.1040376503647
 10
163.3659179829782
 20
345.9043940727595
  0
LWPOLYLINE
  5
69B
330
1F
100
AcDbEntity
  8
VISIBLE
100
AcDbPolyline
 90
        2
 70
     0
 43
0.0
 10
163.3497968165083
 20
346.3022937822773
 10
163.3558451992493
 20
346.1040376503647
  0
LWPOLYLINE
  5
69C
330
1F
100
AcDbEntity
  8
VISIBLE
100
AcDbPolyline
 90
        2
 70
     0
 43
0.0
 10
163.3476831021497
 20
346.4990610306748
 10
163.3497968165083
 20
346.3022937822773
  0
LWPOLYLINE
  5
69D
330
1F
100
AcDbEntity
  8
VISIBLE
100
AcDbPolyline
 90
        2
 70
     0
 43
0.0
 10
163.3476794491803
 20
346.5051849523792
 10
163.3476831021497
 20
346.4990610306748
  0
LWPOLYLINE
  5
69E
330
1F
100
AcDbEntity
  8
VISIBLE
100
AcDbPolyline
 90
        2
 70
     0
 43
0.0
 10
163.3476791219468
 20
346.5067156905291
 10
163.3476794491803
 20
346.5051849523792
  0
LWPOLYLINE
  5
69F
330
1F
100
AcDbEntity
  8
VISIBLE
100
AcDbPolyline
 90
        2
 70
     0
 43
0.0
 10
163.3476790462006
 20
346.5074810232319
 10
163.3476791219468
 20
346.5067156905291
  0
LWPOLYLINE
  5
6A0
330
1F
100
AcDbEntity
  8
VISIBLE
100
AcDbPolyline
 90
        2
 70
     0
 43
0.0
 10
163.3476790302928
 20
346.507863680488
 10
163.3476790462006
 20
346.5074810232319
  0
LWPOLYLINE
  5
6A1
330
1F
100
AcDbEntity
  8
VISIBLE
100
AcDbPolyline
 90
        2
 70
     0
 43
0.0
 10
163.3476790278299
 20
346.5080550068417
 10
163.3476790302928
 20
346.507863680488
  0
LWPOLYLINE
  5
6A2
330
1F
100
AcDbEntity
  8
VISIBLE
100
AcDbPolyline
 90
        2
 70
     0
 43
0.0
 10
163.3476790277752
 20
346.5105490341271
 10
163.3476790278299
 20
346.5080550068417
  0
LWPOLYLINE
  5
6A3
330
1F
100
AcDbEntity
  8
VISIBLE
100
AcDbPolyline
 90
        2
 70
     0
 43
0.0
 10
163.3476790277752
 20
346.558151053521
 10
163.3476790277752
 20
346.5105490341271
  0
LWPOLYLINE
  5
6A4
330
1F
100
AcDbEntity
  8
VISIBLE
100
AcDbPolyline
 90
        2
 70
     0
 43
0.0
 10
163.3476790277752
 20
346.7485591310969
 10
163.3476790277752
 20
346.558151053521
  0
LWPOLYLINE
  5
6A5
330
1F
100
AcDbEntity
  8
VISIBLE
100
AcDbPolyline
 90
        2
 70
     0
 43
0.0
 10
163.3476790277752
 20
347.1293752862489
 10
163.3476790277752
 20
346.7485591310969
  0
LWPOLYLINE
  5
6A6
330
1F
100
AcDbEntity
  8
VISIBLE
100
AcDbPolyline
 90
        2
 70
     0
 43
0.0
 10
163.3476790277752
 20
347.891007596553
 10
163.3476790277752
 20
347.1293752862489
  0
LWPOLYLINE
  5
6A7
330
1F
100
AcDbEntity
  8
VISIBLE
100
AcDbPolyline
 90
        2
 70
     0
 43
0.0
 10
163.3476790277752
 20
349.414272217161
 10
163.3476790277752
 20
347.891007596553
  0
LWPOLYLINE
  5
6A8
330
1F
100
AcDbEntity
  8
VISIBLE
100
AcDbPolyline
 90
        2
 70
     0
 43
0.0
 10
163.3476790277752
 20
352.4608014583769
 10
163.3476790277752
 20
349.414272217161
  0
LWPOLYLINE
  5
6A9
330
1F
100
AcDbEntity
  8
VISIBLE
100
AcDbPolyline
 90
        2
 70
     0
 43
0.0
 10
163.3476790277752
 20
364.6469184232408
 10
163.3476790277752
 20
352.4608014583769
  0
LWPOLYLINE
  5
6AA
330
1F
100
AcDbEntity
  8
VISIBLE
100
AcDbPolyline
 90
        2
 70
     0
 43
0.0
 10
163.3476790277752
 20
389.0191523529684
 10
163.3476790277752
 20
364.6469184232408
  0
LWPOLYLINE
  5
6AB
330
1F
100
AcDbEntity
  8
VISIBLE
100
AcDbPolyline
 90
        2
 70
     0
 43
0.0
 10
163.3476790277752
 20
486.5080880718791
 10
163.3476790277752
 20
389.0191523529684
  0
LWPOLYLINE
  5
6AC
330
1F
100
AcDbEntity
  8
VISIBLE
100
AcDbPolyline
 90
        2
 70
     0
 43
0.0
 10
348.7685440141906
 20
670.9364005114618
 10
314.5185440141907
 20
670.936400511462
  0
LWPOLYLINE
  5
6AD
330
1F
100
AcDbEntity
  8
VISIBLE
100
AcDbPolyline
 90
        2
 70
     0
 43
0.0
 10
348.7685440141906
 20
670.936400511462
 10
348.7685440141906
 20
687.4868130920511
  0
LWPOLYLINE
  5
6AE
330
1F
100
AcDbEntity
  8
VISIBLE
100
AcDbPolyline
 90
        2
 70
     0
 43
0.0
 10
317.51854401419
 20
694.4364005114624
 42
0.086129803675482
 10
348.7685440141906
 20
687.4868130920511
  0
LWPOLYLINE
  5
6AF
330
1F
100
AcDbEntity
  8
VISIBLE
100
AcDbPolyline
 90
        2
 70
     0
 43
0.0
 10
317.5185440141906
 20
713.436400511462
 10
317.5185440141906
 20
694.436400511462
  0
LWPOLYLINE
  5
6B0
330
1F
100
AcDbEntity
  8
VISIBLE
100
AcDbPolyline
 90
        2
 70
     0
 43
0.0
 10
317.5185440141906
 20
713.436400511462
 10
308.5185440141906
 20
713.436400511462
  0
LWPOLYLINE
  5
6B1
330
1F
100
AcDbEntity
  8
VISIBLE
100
AcDbPolyline
 90
        2
 70
     0
 43
0.0
 10
308.5185440141906
 20
683.436400511462
 10
308.5185440141906
 20
713.436400511462
  0
LWPOLYLINE
  5
6B2
330
1F
100
AcDbEntity
  8
VISIBLE
100
AcDbPolyline
 90
        2
 70
     0
 43
0.0
 10
314.5185440141907
 20
683.436400511462
 10
308.5185440141906
 20
683.436400511462
  0
LWPOLYLINE
  5
6B3
330
1F
100
AcDbEntity
  8
VISIBLE
100
AcDbPolyline
 90
        2
 70
     0
 43
0.0
 10
314.5185440141907
 20
683.436400511462
 10
314.5185440141907
 20
670.936400511462
  0
LWPOLYLINE
  5
6B4
330
1F
100
AcDbEntity
  8
VISIBLE
100
AcDbPolyline
 90
       34
 70
     1
 43
0.0
 10
194.4603168828849
 20
384.0080880718791
 10
211.9724677859385
 20
384.0080880718791
 10
216.3505055117019
 20
384.0080880718791
 10
216.8977602274223
 20
384.0080880718791
 10
217.1713875852826
 20
384.0080880718791
 10
217.2350411726653
 20
383.8011637447618
 10
217.2350411726652
 20
382.7225498440376
 10
217.235041172665
 20
380.5653220425893
 10
217.235041172664
 20
371.9364108367957
 10
217.2350411726629
 20
363.3074996310021
 10
217.2350411726628
 20
362.228885730278
 10
217.2350411726627
 20
361.6895787799159
 10
217.2342572584748
 20
361.363200369989
 10
217.1713149971469
 20
360.3037522868294
 10
216.7345272194431
 20
358.1686730480198
 10
215.8765272359523
 20
356.1138912023403
 10
214.6313344495677
 20
354.2608435140341
 10
213.0768306721201
 20
352.7095357618076
 10
211.3178018499807
 20
351.520450084848
 10
209.348378787198
 20
350.6720252516304
 10
207.189750351807
 20
350.1999493739674
 10
204.9550198053785
 20
350.1556294939909
 10
202.7711327812919
 20
350.5440550801717
 10
200.755725039792
 20
351.3224530482656
 10
198.9609461078303
 20
352.4390161271128
 10
197.3563121454957
 20
353.9204768061033
 10
196.0411441794241
 20
355.7195623080877
 10
195.1006197922865
 20
357.7430018791212
 10
194.5783357290054
 20
359.8719163619194
 10
194.4744962644407
 20
360.9372377571802
 10
194.4602652447072
 20
361.4637757350859
 10
194.4603168828876
 20
362.4358100573952
 10
194.4603168828871
 20
366.7502656602919
 10
194.460316882885
 20
384.0080880718792
  0
LWPOLYLINE
  5
6B5
330
1F
100
AcDbEntity
  8
VISIBLE
100
AcDbPolyline
 90
       61
 70
     1
 43
0.0
 10
194.4603168828878
 20
461.5080880718791
 10
206.2507707336458
 20
461.5080880718791
 10
212.1459976590249
 20
461.5080880718791
 10
215.0936111217144
 20
461.5080880718791
 10
216.5674178530592
 20
461.5080880718791
 10
217.265869380201
 20
461.5080458327606
 10
217.5958628830906
 20
461.5023002583013
 10
218.9473594628157
 20
461.3770118540267
 10
220.3276136724677
 20
461.0746723448116
 10
221.7027272927154
 20
460.5829261206181
 10
223.0343613959684
 20
459.8981287848406
 10
224.2826186711673
 20
459.0270191015184
 10
225.4095938294406
 20
457.9872011427021
 10
226.3830013386222
 20
456.806166019034
 10
227.1791927139297
 20
455.5189197669933
 10
227.7849886963353
 20
454.1646347883224
 10
228.1980454412597
 20
452.7829717140939
 10
228.4258358666967
 20
451.4107433178137
 10
228.4836035075207
 20
450.0782398057957
 10
228.3811854150326
 20
448.7329754438134
 10
228.1039555573264
 20
447.3547795972504
 10
227.6385427180862
 20
445.9767733679159
 10
226.9799911261821
 20
444.6368381749786
 10
226.1335604573052
 20
443.3748581221501
 10
225.1153930411771
 20
442.2292304676864
 10
223.9517396828464
 20
441.2332079550412
 10
222.6767606627317
 20
440.4117593656351
 10
221.3292757113596
 20
439.7795507912209
 10
219.949089576432
 20
439.340375799521
 10
218.5735741246897
 20
439.088001700846
 10
217.2350411726626
 20
439.0080880718791
 10
205.4445873219045
 20
439.0080880718791
 10
199.5493603965254
 20
439.0080880718791
 10
196.6017469338359
 20
439.0080880718791
 10
195.1279402024912
 20
439.0080880718791
 10
194.4294886753494
 20
439.0081303109974
 10
194.0994951724598
 20
439.0138758854568
 10
192.7479985927347
 20
439.1391642897315
 10
191.3677443830827
 20
439.4415037989467
 10
189.992630762835
 20
439.9332500231401
 10
188.660996659582
 20
440.6180473589175
 10
187.4127393843832
 20
441.4891570422397
 10
186.2857642261098
 20
442.5289750010562
 10
185.3123567169282
 20
443.7100101247241
 10
184.5161653416208
 20
444.9972563767649
 10
183.9103693592152
 20
446.3515413554357
 10
183.4973126142908
 20
447.7332044296643
 10
183.2695221888538
 20
449.1054328259444
 10
183.2117545480297
 20
450.4379363379623
 10
183.3141726405179
 20
451.7832006999445
 10
183.5914024982241
 20
453.1613965465076
 10
184.0568153374642
 20
454.5394027758422
 10
184.7153669293684
 20
455.8793379687793
 10
185.5617975982452
 20
457.141318021608
 10
186.5799650143734
 20
458.2869456760716
 10
187.743618372704
 20
459.2829681887169
 10
189.0185973928188
 20
460.1044167781229
 10
190.3660823441908
 20
460.7366253525371
 10
191.7462684791184
 20
461.175800344237
 10
193.1217839308607
 20
461.428174442912
 10
194.4603168828878
 20
461.5080880718791
  0
LWPOLYLINE
  5
6B6
330
1F
100
AcDbEntity
  8
VISIBLE
100
AcDbPolyline
 90
       19
 70
     1
 43
0.0
 10
228.8476790277752
 20
351.5080880718791
 10
227.9720956784041
 20
349.9922069679983
 10
226.2793274307574
 20
349.9612200543487
 10
225.3485793543318
 20
351.451960250257
 10
225.3476855983047
 20
351.5032925729287
 10
225.3476790277752
 20
353.706654707996
 10
225.3476790277752
 20
358.5600835989215
 10
225.3476790277752
 20
368.2669413807726
 10
225.3476790277752
 20
387.6806569444748
 10
225.3476790277752
 20
426.5080880718791
 10
226.2232623771462
 20
428.0239691757598
 10
227.916030624793
 20
428.0549560894094
 10
228.8467787012187
 20
426.5642158935012
 10
228.8476724572457
 20
426.5128835708294
 10
228.8476790277752
 20
424.3095214357621
 10
228.8476790277752
 20
419.4560925448366
 10
228.8476790277752
 20
409.7492347629855
 10
228.8476790277752
 20
390.3355191992834
 10
228.8476790277752
 20
351.508088071879
  0
LWPOLYLINE
  5
6B7
330
1F
100
AcDbEntity
  8
VISIBLE
100
AcDbPolyline
 90
       23
 70
     1
 43
0.0
 10
360.5150128874592
 20
620.3056131312709
 10
360.5150128874592
 20
635.7303910920403
 10
360.5150128874592
 20
643.442780072425
 10
360.5150345463068
 20
644.3170128074172
 10
360.5174474224513
 20
644.426448899948
 10
360.5347727225901
 20
644.6493696725918
 10
360.6234949174646
 20
645.1050653369706
 10
361.7350834247409
 20
646.7205357196259
 10
363.5150128874592
 20
647.3056131312708
 10
368.3144650931588
 20
647.1971311012655
 10
369.9299354758141
 20
646.0855425939891
 10
370.5150128874592
 20
644.3056131312708
 10
370.5150128874592
 20
628.8808351705014
 10
370.5150128874592
 20
621.1684461901167
 10
370.5149912286116
 20
620.2942134551243
 10
370.5125783524672
 20
620.1847773625939
 10
370.4952530523283
 20
619.9618565899499
 10
370.4065308574538
 20
619.5061609255713
 10
369.2949423501776
 20
617.8906905429158
 10
367.5150128874592
 20
617.3056131312709
 10
362.7155606817595
 20
617.4140951612762
 10
361.1000902991043
 20
618.5256836685526
 10
360.5150128874592
 20
620.3056131312707
  0
LWPOLYLINE
  5
6B8
330
1F
100
AcDbEntity
  8
pocket
100
AcDbPolyline
 90
       25
 70
     1
 43
0.0
 10
355.6510720689047
 20
616.0944373851414
 10
355.6510720689047
 20
632.8897199177906
 10
355.6510720689047
 20
641.2873611841153
 10
355.6510720689047
 20
645.4861818172775
 10
355.6510720689047
 20
647.5855921338586
 10
355.6510522590811
 20
648.528136276276
 10
355.6491315813982
 20
648.6290804768213
 10
355.1636901156241
 20
650.2286421210936
 10
353.9583978498467
 20
651.3693730412803
 10
352.3371298069045
 20
651.7661597991535
 10
350.7389379273619
 20
651.3096028875921
 10
349.5732483299816
 20
650.1186355934085
 10
349.1510834418077
 20
648.5081909857935
 10
349.151092257027
 20
631.7956245986084
 10
349.1510814655482
 20
623.4022479230731
 10
349.1510760698089
 20
619.2055595853054
 10
349.1510733719392
 20
617.1072154164216
 10
349.1510739357193
 20
616.0909589725066
 10
349.1527487543007
 20
615.9900593911357
 10
349.6340557006336
 20
614.3897068593343
 10
350.8366298081421
 20
613.2457540749871
 10
352.4567788985919
 20
612.8449190224348
 10
354.0560302465339
 20
613.2973692677419
 10
355.2248923836121
 20
614.4855478972806
 10
355.6510720689048
 20
616.0944373851416
  0
LWPOLYLINE
  5
6B9
330
1F
100
AcDbEntity
  8
pocket
100
AcDbPolyline
 90
       25
 70
     1
 43
0.0
 10
306.1470420312506
 20
616.0944373851415
 10
306.5732217165432
 20
614.4855478972807
 10
307.7420838536212
 20
613.2973692677421
 10
309.3413352015631
 20
612.8449190224349
 10
310.9614842920128
 20
613.2457540749868
 10
312.1640583995215
 20
614.3897068593339
 10
312.6453653458546
 20
615.9900593911353
 10
312.6470401644361
 20
616.090958972506
 10
312.6470407282162
 20
617.1072154164155
 10
312.6470380303465
 20
619.2055595852992
 10
312.6470326346071
 20
623.4022479230667
 10
312.6470218431284
 20
631.7956245986015
 10
312.6470306583475
 20
648.5081909857926
 10
312.2248657701737
 20
650.1186355934074
 10
311.0591761727935
 20
651.309602887591
 10
309.4609842932511
 20
651.7661597991527
 10
307.8397162503089
 20
651.3693730412795
 10
306.6344239845315
 20
650.2286421210932
 10
306.1489825187572
 20
648.6290804768213
 10
306.1470618410742
 20
648.5281362762759
 10
306.1470420312506
 20
647.5855921338567
 10
306.1470420312506
 20
645.4861818172757
 10
306.1470420312506
 20
641.2873611841136
 10
306.1470420312506
 20
632.8897199177895
 10
306.1470420312506
 20
616.0944373851414
  0
LWPOLYLINE
  5
6BA
330
1F
100
AcDbEntity
  8
VISIBLE
100
AcDbPolyline
 90
       14
 70
     1
 43
0.0
 10
307.6470420319834
 20
616.0945173391966
 10
307.9488700975343
 20
615.1119457350678
 10
308.7383346526506
 20
614.4731443696191
 10
309.7735732235102
 20
614.3854289064982
 10
310.6558449486298
 20
614.8787462006947
 10
311.1233819622392
 20
615.8076481838828
 10
311.1470420312506
 20
629.8890854594329
 10
311.1467224964243
 20
648.5502294184934
 10
310.8248999902676
 20
649.5285801843673
 10
310.0235201488753
 20
650.150810042539
 10
308.9861392556062
 20
650.2178646866923
 10
308.1144468489806
 20
649.7073558005149
 10
307.6652264960802
 20
648.7684135028692
 10
307.647874869064
 20
635.3285067270544
  0
LWPOLYLINE
  5
6BB
330
1F
100
AcDbEntity
  8
VISIBLE
100
AcDbPolyline
 90
       17
 70
     1
 43
0.0
 10
350.6510720689042
 20
648.5167888774013
 10
351.5171287486325
 20
650.0271346015807
 10
353.2579455884408
 20
650.0426551138442
 10
354.1507878681694
 20
648.5483265025785
 10
354.1496776990958
 20
648.2968299258849
 10
354.1497687906515
 20
646.1931123365879
 10
354.1499509737631
 20
641.9856771579938
 10
354.1503153399859
 20
633.5708068008059
 10
354.1510440724315
 20
616.74106608643
 10
353.3147265295382
 20
614.6018815049572
 10
351.5753685602184
 20
614.5514854021188
 10
350.6523876600482
 20
616.0265973433171
 10
350.6510720689048
 20
616.8926712114033
 10
350.6510720689048
 20
619.0009457224697
 10
350.6510720689048
 20
623.2174947446026
 10
350.6510720689048
 20
631.6505927888682
 10
350.6510720689047
 20
648.5167888773997
  0
LWPOLYLINE
  5
6BC
330
1F
100
AcDbEntity
  8
VISIBLE
100
AcDbPolyline
 90
       23
 70
     1
 43
0.0
 10
253.339451540014
 20
620.3056131312709
 10
253.339451540014
 20
635.7303910920403
 10
253.339451540014
 20
643.442780072425
 10
253.3394731988615
 20
644.3170128074172
 10
253.3418860750061
 20
644.426448899948
 10
253.3592113751449
 20
644.6493696725918
 10
253.4479335700194
 20
645.1050653369706
 10
254.5595220772956
 20
646.7205357196259
 10
256.339451540014
 20
647.3056131312708
 10
261.1389037457136
 20
647.1971311012655
 10
262.754374128369
 20
646.0855425939891
 10
263.339451540014
 20
644.3056131312708
 10
263.339451540014
 20
628.8808351705014
 10
263.339451540014
 20
621.1684461901167
 10
263.3394298811664
 20
620.2942134551243
 10
263.3370170050219
 20
620.1847773625939
 10
263.3196917048831
 20
619.9618565899499
 10
263.2309695100087
 20
619.5061609255713
 10
262.1193810027323
 20
617.8906905429158
 10
260.339451540014
 20
617.3056131312709
 10
255.5399993343144
 20
617.4140951612762
 10
253.924528951659
 20
618.5256836685526
 10
253.3394515400139
 20
620.3056131312707
  0
LWPOLYLINE
  5
6BD
330
1F
100
AcDbEntity
  8
pocket
100
AcDbPolyline
 90
       25
 70
     1
 43
0.0
 10
248.4755107214595
 20
616.0944373851414
 10
248.4755107214595
 20
632.8897199177906
 10
248.4755107214595
 20
641.2873611841153
 10
248.4755107214595
 20
645.4861818172775
 10
248.4755107214595
 20
647.5855921338586
 10
248.4754909116359
 20
648.528136276276
 10
248.473570233953
 20
648.6290804768213
 10
247.9881287681789
 20
650.2286421210936
 10
246.7828365024015
 20
651.3693730412803
 10
245.1615684594592
 20
651.7661597991535
 10
243.5633765799167
 20
651.3096028875921
 10
242.3976869825364
 20
650.1186355934085
 10
241.9755220943625
 20
648.5081909857935
 10
241.9755309095818
 20
631.7956245986084
 10
241.9755201181031
 20
623.4022479230731
 10
241.9755147223637
 20
619.2055595853054
 10
241.975512024494
 20
617.1072154164216
 10
241.9755125882742
 20
616.0909589725066
 10
241.9771874068556
 20
615.9900593911357
 10
242.4584943531884
 20
614.3897068593343
 10
243.6610684606969
 20
613.2457540749871
 10
245.2812175511468
 20
612.8449190224348
 10
246.8804688990887
 20
613.2973692677419
 10
248.0493310361668
 20
614.4855478972806
 10
248.4755107214596
 20
616.0944373851416
  0
LWPOLYLINE
  5
6BE
330
1F
100
AcDbEntity
  8
pocket
100
AcDbPolyline
 90
       25
 70
     1
 43
0.0
 10
198.9714806838054
 20
616.0944373851415
 10
199.3976603690981
 20
614.4855478972807
 10
200.5665225061761
 20
613.2973692677421
 10
202.1657738541179
 20
612.8449190224349
 10
203.7859229445676
 20
613.2457540749868
 10
204.9884970520763
 20
614.3897068593339
 10
205.4698039984094
 20
615.9900593911353
 10
205.4714788169909
 20
616.090958972506
 10
205.4714793807709
 20
617.1072154164155
 10
205.4714766829012
 20
619.2055595852992
 10
205.4714712871619
 20
623.4022479230667
 10
205.4714604956831
 20
631.7956245986015
 10
205.4714693109024
 20
648.5081909857926
 10
205.0493044227286
 20
650.1186355934074
 10
203.8836148253483
 20
651.309602887591
 10
202.285422945806
 20
651.7661597991527
 10
200.6641549028638
 20
651.3693730412795
 10
199.4588626370862
 20
650.2286421210932
 10
198.9734211713119
 20
648.6290804768213
 10
198.971500493629
 20
648.5281362762759
 10
198.9714806838054
 20
647.5855921338567
 10
198.9714806838054
 20
645.4861818172757
 10
198.9714806838054
 20
641.2873611841136
 10
198.9714806838054
 20
632.8897199177895
 10
198.9714806838054
 20
616.0944373851414
  0
LWPOLYLINE
  5
6BF
330
1F
100
AcDbEntity
  8
VISIBLE
100
AcDbPolyline
 90
       14
 70
     1
 43
0.0
 10
200.4714806845383
 20
616.0945173391966
 10
200.7733087500891
 20
615.1119457350678
 10
201.5627733052054
 20
614.4731443696191
 10
202.5980118760651
 20
614.3854289064982
 10
203.4802836011845
 20
614.8787462006947
 10
203.947820614794
 20
615.8076481838828
 10
203.9714806838054
 20
629.8890854594329
 10
203.9711611489792
 20
648.5502294184934
 10
203.6493386428225
 20
649.5285801843673
 10
202.8479588014301
 20
650.150810042539
 10
201.810577908161
 20
650.2178646866923
 10
200.9388855015354
 20
649.7073558005149
 10
200.4896651486351
 20
648.7684135028692
 10
200.4723135216188
 20
635.3285067270544
  0
LWPOLYLINE
  5
6C0
330
1F
100
AcDbEntity
  8
VISIBLE
100
AcDbPolyline
 90
       17
 70
     1
 43
0.0
 10
243.475510721459
 20
648.5167888774013
 10
244.3415674011874
 20
650.0271346015807
 10
246.0823842409955
 20
650.0426551138442
 10
246.9752265207242
 20
648.5483265025785
 10
246.9741163516507
 20
648.2968299258849
 10
246.9742074432065
 20
646.1931123365879
 10
246.9743896263179
 20
641.9856771579938
 10
246.9747539925408
 20
633.5708068008059
 10
246.9754827249864
 20
616.74106608643
 10
246.139165182093
 20
614.6018815049572
 10
244.3998072127732
 20
614.5514854021188
 10
243.4768263126031
 20
616.0265973433171
 10
243.4755107214595
 20
616.8926712114033
 10
243.4755107214595
 20
619.0009457224697
 10
243.4755107214595
 20
623.2174947446026
 10
243.4755107214595
 20
631.6505927888682
 10
243.4755107214595
 20
648.5167888773997
  0
LWPOLYLINE
  5
6C1
330
1F
100
AcDbEntity
  8
VISIBLE
100
AcDbPolyline
 90
      114
 70
     1
 43
0.0
 10
145.5724152090818
 20
732.0922795914722
 10
95.19299138066813
 20
732.0922795914722
 10
88.89556340211644
 20
732.0922795914722
 10
88.57241520908178
 20
732.0848647435117
 10
88.57241520908178
 20
732.0434342962844
 10
88.57241520908178
 20
731.9605734018296
 10
88.57241520908178
 20
731.7948516129205
 10
88.57241520908178
 20
731.4634080351021
 10
88.57241520908178
 20
730.1376337238281
 10
88.57241520908178
 20
727.48608510128
 10
88.57241520908178
 20
726.1603107900059
 10
88.51927546536479
 20
726.0922795914723
 10
88.22235726023572
 20
726.0922795914723
 10
87.62852084997755
 20
726.0922795914723
 10
86.44084802946123
 20
726.0922795914723
 10
84.06550238842857
 20
726.0922795914723
 10
74.56411982429793
 20
726.0922795914722
 10
69.8134285422326
 20
726.0922795914722
 10
67.43808290119995
 20
726.0922795914722
 10
67.14116469607086
 20
726.0922795914722
 10
67.07241520908178
 20
726.1031122767028
 10
67.07241520908178
 20
726.2498451106329
 10
67.07241520908178
 20
726.5433107784931
 10
67.07241520908178
 20
727.7171734499337
 10
67.07241520908178
 20
730.0648987928148
 10
67.07241520908178
 20
748.8467015358638
 10
67.07241520908178
 20
767.6285042789128
 10
67.07241520908178
 20
768.215435614633
 10
67.07241520908178
 20
768.5089012824931
 10
67.0725392288898
 20
768.6479615438413
 10
67.07785182660747
 20
768.9609066134501
 10
67.11271824236526
 20
769.5952509258558
 10
67.28535610958217
 20
770.8897083031853
 10
67.60463360608511
 20
772.2009086251879
 10
68.07814408305311
 20
773.5046854461776
 10
68.70818341240682
 20
774.7743882501839
 10
69.49091302172996
 20
775.9823617051177
 10
70.41603455225767
 20
777.1017268865283
 10
71.46709078165837
 20
778.1082512142869
 10
72.62240379761313
 20
778.9820505889706
 10
73.85654391427221
 20
779.7088804811854
 10
75.14212462906711
 20
780.2808434629081
 10
76.45166832745444
 20
780.6964499017749
 10
77.75929638938084
 20
780.9600845764175
 10
79.04205754303774
 20
781.0810233531987
 10
79.35652665763408
 20
781.0904151377587
 10
79.51264012348118
 20
781.0921366682206
 10
79.69232710499287
 20
781.0922795914722
 10
80.2102076953343
 20
781.0922795914722
 10
84.35325241806571
 20
781.0922795914722
 10
92.63934186352846
 20
781.0922795914722
 10
125.7836996453796
 20
781.0922795914722
 10
142.3558785363052
 20
781.0922795914722
 10
150.641967981768
 20
781.0922795914722
 10
152.7134903431337
 20
781.0922795914722
 10
153.7492515238165
 20
781.0922795914722
 10
154.267132114158
 20
781.0922795914722
 10
154.5260724093286
 20
781.0922795914722
 10
154.604332859484
 20
781.0922388419495
 10
155.232684890423
 20
781.0748291686979
 10
156.518949142986
 20
780.9397896904421
 10
157.8278888083985
 20
780.6609121421862
 10
159.1362040528708
 20
780.2293682045794
 10
160.4177837592086
 20
779.6413368595467
 10
161.6450771020692
 20
778.8989499436025
 10
162.7908115855658
 20
778.0107699693935
 10
163.8298634527247
 20
776.991663617475
 10
164.7410305520683
 20
775.8620293812779
 10
165.5084548558251
 20
774.6464547495642
 10
166.1224981901056
 20
773.3719849308696
 10
166.5799764077328
 20
772.0662505269652
 10
166.8837747918496
 20
770.7557086344015
 10
167.0419680673415
 20
769.4642036220312
 10
167.0701149859649
 20
768.8320717658545
 10
167.0340434023902
 20
768.5922795914722
 10
166.868321613481
 20
768.5922795914722
 10
165.5425473022069
 20
768.5922795914722
 10
162.8909986796588
 20
768.5922795914722
 10
161.5652243683848
 20
768.5922795914722
 10
161.2337807905662
 20
768.5922795914722
 10
161.0724152090818
 20
768.5704985543483
 10
161.0724152090818
 20
767.741889609802
 10
161.0724152090818
 20
764.4274538316168
 10
161.0724152090818
 20
751.1697107188764
 10
161.0724152090818
 20
744.5408391625063
 10
161.0724152090818
 20
741.2264033843212
 10
161.0724152090818
 20
739.5691854952286
 10
161.0724152090818
 20
738.7405765506825
 10
161.0841862644671
 20
738.5922795914722
 10
161.1256167116944
 20
738.5922795914722
 10
161.208477606149
 20
738.5922795914722
 10
163.8600262286971
 20
738.5922795914722
 10
166.5115748512452
 20
738.5922795914722
 10
166.8430184290637
 20
738.5922795914722
 10
167.008740217973
 20
738.5922795914722
 10
167.0724152090818
 20
738.5523089595018
 10
167.0724152090818
 20
738.3796820960546
 10
167.0724152090818
 20
736.9986671884775
 10
167.0724152090818
 20
734.2366373733233
 10
167.0724152090818
 20
728.7125777430149
 10
167.0724152090818
 20
727.3315628354376
 10
167.0724152090818
 20
726.6410553816491
 10
167.0724152090818
 20
726.2958016547549
 10
167.0724152090818
 20
726.1231747913077
 10
166.8286367476697
 20
726.0922795914722
 10
162.0779454656044
 20
726.0922795914722
 10
152.5765629014737
 20
726.0922795914722
 10
147.8258716194084
 20
726.0922795914722
 10
146.6381987988921
 20
726.0922795914722
 10
146.0443623886339
 20
726.0922795914722
 10
145.7474441835048
 20
726.0922795914722
 10
145.5724152090818
 20
726.1262951907391
 10
145.5724152090818
 20
726.7891823463761
 10
145.5724152090818
 20
732.0922795914723
  0
LWPOLYLINE
  5
6C2
330
1F
100
AcDbEntity
  8
VISIBLE
100
AcDbPolyline
 90
       37
 70
     1
 43
0.0
 10
149.0724152090818
 20
699.5224849242866
 10
150.8817808115947
 20
699.3009597725253
 10
152.7002282024612
 20
698.5867040617826
 10
154.3259831214247
 20
697.375056660415
 10
155.569048511428
 20
695.7699848555535
 10
156.3183581321909
 20
693.9580239073724
 10
156.5714567656538
 20
692.1423837683421
 10
156.3810847214798
 20
690.33922916281
 10
155.7018495699264
 20
688.5152637942105
 10
154.5221169802671
 20
686.8697428770714
 10
152.9386286912856
 20
685.5957911156456
 10
151.1341302089518
 20
684.8114287423316
 10
149.3129630160338
 20
684.526343466672
 10
149.0929673474406
 20
684.522513083699
 10
148.3542167746169
 20
684.5224849242867
 10
146.7687633369146
 20
684.5224849242867
 10
143.5978564615099
 20
684.5224849242867
 10
137.2560427107005
 20
684.5224849242867
 10
124.5724152090818
 20
684.5224849242867
 10
126.3817808115947
 20
684.7440100760482
 10
128.2002282024611
 20
685.4582657867909
 10
129.8259831214247
 20
686.6699131881582
 10
131.069048511428
 20
688.2749849930197
 10
131.8183581321909
 20
690.0869459412009
 10
132.0714567656538
 20
691.9025860802312
 10
131.8810847214797
 20
693.7057406857632
 10
131.2018495699264
 20
695.5297060543628
 10
130.022116980267
 20
697.1752269715018
 10
128.4386286912856
 20
698.4491787329277
 10
126.6341302089518
 20
699.2335411062416
 10
124.8129630160337
 20
699.5186263819014
 10
124.5929673474406
 20
699.5224567648742
 10
125.2906136435466
 20
699.5224849242866
 10
126.876067081249
 20
699.5224849242866
 10
130.0469739566537
 20
699.5224849242866
 10
136.388787707463
 20
699.5224849242866
 10
149.0724152090818
 20
699.5224849242866
  0
LWPOLYLINE
  5
6C3
330
1F
100
AcDbEntity
  8
VISIBLE
100
AcDbPolyline
 90
       23
 70
     1
 43
0.0
 10
147.232549476117
 20
620.3056131312709
 10
147.232549476117
 20
635.7303910920403
 10
147.232549476117
 20
643.442780072425
 10
147.2325711349645
 20
644.3170128074172
 10
147.2349840111091
 20
644.426448899948
 10
147.2523093112479
 20
644.6493696725918
 10
147.3410315061223
 20
645.1050653369706
 10
148.4526200133986
 20
646.7205357196259
 10
150.232549476117
 20
647.3056131312708
 10
155.0320016818166
 20
647.1971311012655
 10
156.6474720644719
 20
646.0855425939891
 10
157.232549476117
 20
644.3056131312708
 10
157.232549476117
 20
628.8808351705014
 10
157.232549476117
 20
621.1684461901167
 10
157.2325278172694
 20
620.2942134551243
 10
157.2301149411249
 20
620.1847773625939
 10
157.2127896409861
 20
619.9618565899499
 10
157.1240674461116
 20
619.5061609255713
 10
156.0124789388353
 20
617.8906905429158
 10
154.232549476117
 20
617.3056131312709
 10
149.4330972704173
 20
617.4140951612762
 10
147.817626887762
 20
618.5256836685526
 10
147.232549476117
 20
620.3056131312707
  0
LWPOLYLINE
  5
6C4
330
1F
100
AcDbEntity
  8
pocket
100
AcDbPolyline
 90
       25
 70
     1
 43
0.0
 10
142.3686086575625
 20
616.0944373851414
 10
142.3686086575625
 20
632.8897199177906
 10
142.3686086575625
 20
641.2873611841153
 10
142.3686086575625
 20
645.4861818172775
 10
142.3686086575625
 20
647.5855921338586
 10
142.3685888477388
 20
648.528136276276
 10
142.366668170056
 20
648.6290804768213
 10
141.8812267042819
 20
650.2286421210936
 10
140.6759344385045
 20
651.3693730412803
 10
139.0546663955623
 20
651.7661597991535
 10
137.4564745160197
 20
651.3096028875921
 10
136.2907849186394
 20
650.1186355934085
 10
135.8686200304655
 20
648.5081909857935
 10
135.8686288456848
 20
631.7956245986084
 10
135.8686180542061
 20
623.4022479230731
 10
135.8686126584667
 20
619.2055595853054
 10
135.868609960597
 20
617.1072154164216
 10
135.8686105243771
 20
616.0909589725066
 10
135.8702853429585
 20
615.9900593911357
 10
136.3515922892913
 20
614.3897068593343
 10
137.5541663967999
 20
613.2457540749871
 10
139.1743154872497
 20
612.8449190224348
 10
140.7735668351917
 20
613.2973692677419
 10
141.9424289722698
 20
614.4855478972806
 10
142.3686086575625
 20
616.0944373851416
  0
LWPOLYLINE
  5
6C5
330
1F
100
AcDbEntity
  8
pocket
100
AcDbPolyline
 90
       25
 70
     1
 43
0.0
 10
92.86457861990841
 20
616.0944373851415
 10
93.29075830520109
 20
614.4855478972807
 10
94.45962044227908
 20
613.2973692677421
 10
96.0588717902209
 20
612.8449190224349
 10
97.67902088067067
 20
613.2457540749868
 10
98.88159498817932
 20
614.3897068593339
 10
99.36290193451243
 20
615.9900593911353
 10
99.36457675309384
 20
616.090958972506
 10
99.36457731687397
 20
617.1072154164155
 10
99.36457461900428
 20
619.2055595852992
 10
99.3645692232649
 20
623.4022479230667
 10
99.36455843178613
 20
631.7956245986015
 10
99.36456724700542
 20
648.5081909857926
 10
98.94240235883158
 20
650.1186355934074
 10
97.77671276145134
 20
651.309602887591
 10
96.17852088190895
 20
651.7661597991527
 10
94.55725283896677
 20
651.3693730412795
 10
93.35196057318929
 20
650.2286421210932
 10
92.86651910741493
 20
648.6290804768213
 10
92.86459842973206
 20
648.5281362762759
 10
92.86457861990843
 20
647.5855921338567
 10
92.86457861990843
 20
645.4861818172757
 10
92.86457861990843
 20
641.2873611841136
 10
92.86457861990843
 20
632.8897199177895
 10
92.86457861990843
 20
616.0944373851414
  0
LWPOLYLINE
  5
6C6
330
1F
100
AcDbEntity
  8
VISIBLE
100
AcDbPolyline
 90
       14
 70
     1
 43
0.0
 10
94.36457862064129
 20
616.0945173391966
 10
94.66640668619213
 20
615.1119457350678
 10
95.4558712413084
 20
614.4731443696191
 10
96.49110981216809
 20
614.3854289064982
 10
97.37338153728758
 20
614.8787462006947
 10
97.840918550897
 20
615.8076481838828
 10
97.86457861990841
 20
629.8890854594329
 10
97.86425908508219
 20
648.5502294184934
 10
97.54243657892544
 20
649.5285801843673
 10
96.74105673753315
 20
650.150810042539
 10
95.70367584426401
 20
650.2178646866923
 10
94.83198343763845
 20
649.7073558005149
 10
94.38276308473808
 20
648.7684135028692
 10
94.36541145772181
 20
635.3285067270544
  0
LWPOLYLINE
  5
6C7
330
1F
100
AcDbEntity
  8
VISIBLE
100
AcDbPolyline
 90
       17
 70
     1
 43
0.0
 10
137.368608657562
 20
648.5167888774013
 10
138.2346653372904
 20
650.0271346015807
 10
139.9754821770985
 20
650.0426551138442
 10
140.8683244568272
 20
648.5483265025785
 10
140.8672142877537
 20
648.2968299258849
 10
140.8673053793094
 20
646.1931123365879
 10
140.8674875624209
 20
641.9856771579938
 10
140.8678519286438
 20
633.5708068008059
 10
140.8685806610893
 20
616.74106608643
 10
140.032263118196
 20
614.6018815049572
 10
138.2929051488761
 20
614.5514854021188
 10
137.369924248706
 20
616.0265973433171
 10
137.3686086575625
 20
616.8926712114033
 10
137.3686086575625
 20
619.0009457224697
 10
137.3686086575625
 20
623.2174947446026
 10
137.3686086575625
 20
631.6505927888682
 10
137.3686086575625
 20
648.5167888773997
  0
LWPOLYLINE
  5
6C8
330
1F
100
AcDbEntity
  8
VISIBLE
100
AcDbPolyline
 90
       43
 70
     1
 43
0.0
 10
97.42278137324214
 20
583.4147008500917
 10
95.42694160268906
 20
582.5233527271026
 10
93.46473769930108
 20
581.5144064576996
 10
91.54633305941795
 20
580.3895538451749
 10
89.68179916427054
 20
579.1516434950359
 10
87.88095191317907
 20
577.8046772553969
 10
86.15318774608589
 20
576.3537789112635
 10
84.50732504429405
 20
574.8051350850702
 10
82.95145627534576
 20
573.1659095361866
 10
81.49281601084696
 20
571.4441332691887
 10
80.13766930863052
 20
569.6485739669078
 10
78.89122405328442
 20
567.7885891792469
 10
77.75756975485503
 20
565.8739683578982
 10
76.7396440938916
 20
563.9147691881174
 10
75.83922725932108
 20
561.9211537156798
 10
75.78687351662718
 20
561.7956415397968
 10
75.79976889023761
 20
561.7565712907077
 10
75.8642022035402
 20
561.7298821384691
 10
75.99306883014538
 20
561.6765038339919
 10
76.25080208335571
 20
561.5697472250377
 10
76.76626858977638
 20
561.3562340071292
 10
85.01373269250713
 20
557.9400225205929
 10
85.68224378474896
 20
559.4369023485077
 10
86.43895348680116
 20
560.9085552760486
 10
87.28259294619464
 20
562.3473587559612
 10
88.21102570879896
 20
563.7457591773215
 10
89.22125038852808
 20
565.0963946156402
 10
90.3094241466282
 20
566.3922177409601
 10
91.4709070162732
 20
567.626614767304
 10
92.70032617793587
 20
568.7935163440151
 10
93.99165837818424
 20
569.8874965423893
 10
95.3383278548951
 20
570.9038565690516
 10
96.73331644564063
 20
571.8386905105611
 10
98.16928206165215
 20
572.6889312343833
 10
99.63868143898773
 20
573.4523754801059
 10
101.133893043316
 20
574.1276881060336
 10
101.2280271752281
 20
574.1669534130541
 10
101.2393301433569
 20
574.2007370478222
 10
101.2126409911184
 20
574.2651703611247
 10
101.1592626866412
 20
574.39403698773
 10
101.052506077687
 20
574.6517702409403
 10
100.8389928597784
 20
575.1672367473608
 10
97.42278137324214
 20
583.4147008500917
  0
LWPOLYLINE
  5
6C9
330
1F
100
AcDbEntity
  8
VISIBLE
100
AcDbPolyline
 90
       43
 70
     1
 43
0.0
 10
128.0374559624493
 20
509.5043382491887
 10
124.621244475913
 20
517.7518023519194
 10
124.4077312580045
 20
518.26726885834
 10
124.3009746490502
 20
518.5250021115503
 10
124.247596344573
 20
518.6538687381555
 10
124.2209071923345
 20
518.718302051458
 10
124.2322101604633
 20
518.7520856862263
 10
124.3263442923754
 20
518.7913509932466
 10
125.8215558967037
 20
519.4666636191747
 10
127.2909552740392
 20
520.230107864897
 10
128.7269208900508
 20
521.0803485887192
 10
130.1219094807963
 20
522.0151825302288
 10
131.4685789575072
 20
523.0315425568911
 10
132.7599111577555
 20
524.1255227552651
 10
133.9893303194182
 20
525.2924243319763
 10
135.1508131890632
 20
526.5268213583204
 10
136.2389869471634
 20
527.8226444836401
 10
137.2492116268925
 20
529.1732799219587
 10
138.1776443894968
 20
530.5716803433194
 10
139.0212838488903
 20
532.0104838232317
 10
139.7779935509425
 20
533.4821367507726
 10
140.4465046431843
 20
534.9790165786875
 10
148.693968745915
 20
531.5628050921512
 10
149.2094352523357
 20
531.3492918742427
 10
149.467168505546
 20
531.2425352652884
 10
149.5960351321512
 20
531.1891569608112
 10
149.6604684454538
 20
531.1624678085727
 10
149.6733638190642
 20
531.1233975594835
 10
149.6210100763703
 20
530.9978853836006
 10
148.7205932417998
 20
529.0042699111629
 10
147.7026675808364
 20
527.0450707413821
 10
146.5690132824069
 20
525.1304499200334
 10
145.3225680270609
 20
523.2704651323728
 10
143.9674213248444
 20
521.4749058300914
 10
142.5087810603456
 20
519.7531295630937
 10
140.9529122913973
 20
518.1139040142102
 10
139.3070495896055
 20
516.5652601880167
 10
137.5792854225123
 20
515.1143618438831
 10
135.7784381714209
 20
513.7673956042444
 10
133.9139042762734
 20
512.5294852541053
 10
131.9954996363903
 20
511.4046326415806
 10
130.0332957330023
 20
510.3956863721778
 10
128.0374559624493
 20
509.5043382491886
  0
LWPOLYLINE
  5
6CA
330
1F
100
AcDbEntity
  8
VISIBLE
100
AcDbPolyline
 90
       61
 70
     1
 43
0.0
 10
101.3427565229583
 20
461.5080880718791
 10
113.1332103737163
 20
461.5080880718791
 10
119.0284372990954
 20
461.5080880718791
 10
121.9760507617849
 20
461.5080880718791
 10
123.4498574931297
 20
461.5080880718791
 10
124.1483090202715
 20
461.5080458327606
 10
124.4783025231611
 20
461.5023002583013
 10
125.8297991028862
 20
461.3770118540267
 10
127.2100533125382
 20
461.0746723448116
 10
128.5851669327859
 20
460.5829261206181
 10
129.9168010360389
 20
459.8981287848406
 10
131.1650583112377
 20
459.0270191015184
 10
132.2920334695111
 20
457.9872011427021
 10
133.2654409786927
 20
456.806166019034
 10
134.0616323540002
 20
455.5189197669933
 10
134.6674283364057
 20
454.1646347883224
 10
135.0804850813302
 20
452.7829717140939
 10
135.3082755067672
 20
451.4107433178137
 10
135.3660431475912
 20
450.0782398057957
 10
135.263625055103
 20
448.7329754438134
 10
134.9863951973969
 20
447.3547795972504
 10
134.5209823581567
 20
445.9767733679159
 10
133.8624307662526
 20
444.6368381749786
 10
133.0160000973757
 20
443.3748581221501
 10
131.9978326812475
 20
442.2292304676864
 10
130.8341793229169
 20
441.2332079550412
 10
129.5592003028022
 20
440.4117593656351
 10
128.2117153514301
 20
439.7795507912209
 10
126.8315292165025
 20
439.340375799521
 10
125.4560137647602
 20
439.088001700846
 10
124.1174808127331
 20
439.0080880718791
 10
112.327026961975
 20
439.0080880718791
 10
106.431800036596
 20
439.0080880718791
 10
103.4841865739065
 20
439.0080880718791
 10
102.0103798425617
 20
439.0080880718791
 10
101.3119283154199
 20
439.0081303109974
 10
100.9819348125303
 20
439.0138758854568
 10
99.63043823280528
 20
439.1391642897315
 10
98.25018402315322
 20
439.4415037989467
 10
96.87507040290551
 20
439.9332500231401
 10
95.5434362996525
 20
440.6180473589175
 10
94.29517902445367
 20
441.4891570422397
 10
93.16820386618035
 20
442.5289750010562
 10
92.19479635699869
 20
443.7100101247241
 10
91.39860498169131
 20
444.9972563767649
 10
90.79280899928569
 20
446.3515413554357
 10
90.37975225436129
 20
447.7332044296643
 10
90.15196182892429
 20
449.1054328259444
 10
90.09419418810024
 20
450.4379363379623
 10
90.19661228058842
 20
451.7832006999445
 10
90.4738421382946
 20
453.1613965465076
 10
90.93925497753479
 20
454.5394027758422
 10
91.59780656943892
 20
455.8793379687793
 10
92.44423723831577
 20
457.141318021608
 10
93.46240465444394
 20
458.2869456760716
 10
94.62605801277454
 20
459.2829681887169
 10
95.90103703288928
 20
460.1044167781229
 10
97.24852198426139
 20
460.7366253525371
 10
98.62870811918895
 20
461.175800344237
 10
100.0042235709312
 20
461.428174442912
 10
101.3427565229582
 20
461.5080880718791
  0
LWPOLYLINE
  5
6CB
330
1F
100
AcDbEntity
  8
VISIBLE
100
AcDbPolyline
 90
       19
 70
     1
 43
0.0
 10
135.7301186678457
 20
351.5080880718791
 10
134.8545353184746
 20
349.9922069679983
 10
133.1617670708279
 20
349.9612200543487
 10
132.2310189944022
 20
351.451960250257
 10
132.2301252383752
 20
351.5032925729287
 10
132.2301186678457
 20
353.706654707996
 10
132.2301186678457
 20
358.5600835989215
 10
132.2301186678457
 20
368.2669413807726
 10
132.2301186678457
 20
387.6806569444748
 10
132.2301186678457
 20
426.5080880718791
 10
133.1057020172167
 20
428.0239691757598
 10
134.7984702648634
 20
428.0549560894094
 10
135.7292183412891
 20
426.5642158935012
 10
135.7301120973162
 20
426.5128835708294
 10
135.7301186678457
 20
424.3095214357621
 10
135.7301186678457
 20
419.4560925448366
 10
135.7301186678457
 20
409.7492347629855
 10
135.7301186678457
 20
390.3355191992834
 10
135.7301186678457
 20
351.508088071879
  0
LWPOLYLINE
  5
6CC
330
1F
100
AcDbEntity
  8
VISIBLE
100
AcDbPolyline
 90
      114
 70
     1
 43
0.0
 10
247.9321027282888
 20
732.0922795914722
 10
197.5526788998751
 20
732.0922795914722
 10
191.2552509213234
 20
732.0922795914722
 10
190.9321027282888
 20
732.0848647435117
 10
190.9321027282888
 20
732.0434342962844
 10
190.9321027282888
 20
731.9605734018296
 10
190.9321027282888
 20
731.7948516129205
 10
190.9321027282888
 20
731.4634080351021
 10
190.9321027282888
 20
730.1376337238281
 10
190.9321027282888
 20
727.48608510128
 10
190.9321027282888
 20
726.1603107900059
 10
190.8789629845718
 20
726.0922795914723
 10
190.5820447794427
 20
726.0922795914723
 10
189.9882083691845
 20
726.0922795914723
 10
188.8005355486682
 20
726.0922795914723
 10
186.4251899076355
 20
726.0922795914723
 10
176.9238073435049
 20
726.0922795914722
 10
172.1731160614396
 20
726.0922795914722
 10
169.7977704204069
 20
726.0922795914722
 10
169.5008522152778
 20
726.0922795914722
 10
169.4321027282888
 20
726.1031122767028
 10
169.4321027282888
 20
726.2498451106329
 10
169.4321027282888
 20
726.5433107784931
 10
169.4321027282888
 20
727.7171734499337
 10
169.4321027282888
 20
730.0648987928148
 10
169.4321027282888
 20
748.8467015358638
 10
169.4321027282888
 20
767.6285042789128
 10
169.4321027282888
 20
768.215435614633
 10
169.4321027282888
 20
768.5089012824931
 10
169.4322267480968
 20
768.6479615438413
 10
169.4375393458145
 20
768.9609066134501
 10
169.4724057615722
 20
769.5952509258558
 10
169.6450436287891
 20
770.8897083031853
 10
169.9643211252921
 20
772.2009086251879
 10
170.4378316022601
 20
773.5046854461776
 10
171.0678709316138
 20
774.7743882501839
 10
171.8506005409369
 20
775.9823617051177
 10
172.7757220714646
 20
777.1017268865283
 10
173.8267783008654
 20
778.1082512142869
 10
174.9820913168201
 20
778.9820505889706
 10
176.2162314334791
 20
779.7088804811854
 10
177.5018121482741
 20
780.2808434629081
 10
178.8113558466614
 20
780.6964499017749
 10
180.1189839085878
 20
780.9600845764175
 10
181.4017450622447
 20
781.0810233531987
 10
181.716214176841
 20
781.0904151377587
 10
181.8723276426882
 20
781.0921366682206
 10
182.0520146241999
 20
781.0922795914722
 10
182.5698952145413
 20
781.0922795914722
 10
186.7129399372727
 20
781.0922795914722
 10
194.9990293827355
 20
781.0922795914722
 10
228.1433871645866
 20
781.0922795914722
 10
244.7155660555122
 20
781.0922795914722
 10
253.001655500975
 20
781.0922795914722
 10
255.0731778623406
 20
781.0922795914722
 10
256.1089390430235
 20
781.0922795914722
 10
256.626819633365
 20
781.0922795914722
 10
256.8857599285356
 20
781.0922795914722
 10
256.964020378691
 20
781.0922388419495
 10
257.59237240963
 20
781.0748291686979
 10
258.8786366621929
 20
780.9397896904421
 10
260.1875763276055
 20
780.6609121421862
 10
261.4958915720778
 20
780.2293682045794
 10
262.7774712784156
 20
779.6413368595467
 10
264.0047646212762
 20
778.8989499436025
 10
265.1504991047728
 20
778.0107699693935
 10
266.1895509719317
 20
776.991663617475
 10
267.1007180712753
 20
775.8620293812779
 10
267.8681423750322
 20
774.6464547495642
 10
268.4821857093126
 20
773.3719849308696
 10
268.9396639269398
 20
772.0662505269652
 10
269.2434623110567
 20
770.7557086344015
 10
269.4016555865484
 20
769.4642036220312
 10
269.4298025051718
 20
768.8320717658545
 10
269.3937309215972
 20
768.5922795914722
 10
269.2280091326879
 20
768.5922795914722
 10
267.9022348214139
 20
768.5922795914722
 10
265.2506861988658
 20
768.5922795914722
 10
263.9249118875917
 20
768.5922795914722
 10
263.5934683097732
 20
768.5922795914722
 10
263.4321027282888
 20
768.5704985543483
 10
263.4321027282888
 20
767.741889609802
 10
263.4321027282888
 20
764.4274538316168
 10
263.4321027282888
 20
751.1697107188764
 10
263.4321027282888
 20
744.5408391625063
 10
263.4321027282888
 20
741.2264033843212
 10
263.4321027282888
 20
739.5691854952286
 10
263.4321027282888
 20
738.7405765506825
 10
263.4438737836741
 20
738.5922795914722
 10
263.4853042309014
 20
738.5922795914722
 10
263.568165125356
 20
738.5922795914722
 10
266.219713747904
 20
738.5922795914722
 10
268.8712623704522
 20
738.5922795914722
 10
269.2027059482707
 20
738.5922795914722
 10
269.3684277371799
 20
738.5922795914722
 10
269.4321027282888
 20
738.5523089595018
 10
269.4321027282888
 20
738.3796820960546
 10
269.4321027282888
 20
736.9986671884775
 10
269.4321027282888
 20
734.2366373733233
 10
269.4321027282888
 20
728.7125777430149
 10
269.4321027282888
 20
727.3315628354376
 10
269.4321027282888
 20
726.6410553816491
 10
269.4321027282888
 20
726.2958016547549
 10
269.4321027282888
 20
726.1231747913077
 10
269.1883242668766
 20
726.0922795914722
 10
264.4376329848113
 20
726.0922795914722
 10
254.9362504206807
 20
726.0922795914722
 10
250.1855591386154
 20
726.0922795914722
 10
248.997886318099
 20
726.0922795914722
 10
248.4040499078409
 20
726.0922795914722
 10
248.1071317027118
 20
726.0922795914722
 10
247.9321027282888
 20
726.1262951907391
 10
247.9321027282888
 20
726.7891823463761
 10
247.9321027282888
 20
732.0922795914723
  0
LWPOLYLINE
  5
6CD
330
1F
100
AcDbEntity
  8
VISIBLE
100
AcDbPolyline
 90
      114
 70
     1
 43
0.0
 10
349.7036337108978
 20
732.0922795914722
 10
299.3242098824841
 20
732.0922795914722
 10
293.0267819039324
 20
732.0922795914722
 10
292.7036337108977
 20
732.0848647435117
 10
292.7036337108977
 20
732.0434342962844
 10
292.7036337108977
 20
731.9605734018296
 10
292.7036337108977
 20
731.7948516129205
 10
292.7036337108977
 20
731.4634080351021
 10
292.7036337108977
 20
730.1376337238281
 10
292.7036337108977
 20
727.48608510128
 10
292.7036337108977
 20
726.1603107900059
 10
292.6504939671808
 20
726.0922795914723
 10
292.3535757620517
 20
726.0922795914723
 10
291.7597393517935
 20
726.0922795914723
 10
290.5720665312772
 20
726.0922795914723
 10
288.1967208902445
 20
726.0922795914723
 10
278.6953383261139
 20
726.0922795914722
 10
273.9446470440486
 20
726.0922795914722
 10
271.5693014030159
 20
726.0922795914722
 10
271.2723831978868
 20
726.0922795914722
 10
271.2036337108977
 20
726.1031122767028
 10
271.2036337108977
 20
726.2498451106329
 10
271.2036337108977
 20
726.5433107784931
 10
271.2036337108977
 20
727.7171734499337
 10
271.2036337108977
 20
730.0648987928148
 10
271.2036337108977
 20
748.8467015358638
 10
271.2036337108977
 20
767.6285042789128
 10
271.2036337108977
 20
768.215435614633
 10
271.2036337108977
 20
768.5089012824931
 10
271.2037577307058
 20
768.6479615438413
 10
271.2090703284235
 20
768.9609066134501
 10
271.2439367441812
 20
769.5952509258558
 10
271.4165746113981
 20
770.8897083031853
 10
271.7358521079011
 20
772.2009086251879
 10
272.209362584869
 20
773.5046854461776
 10
272.8394019142228
 20
774.7743882501839
 10
273.6221315235459
 20
775.9823617051177
 10
274.5472530540737
 20
777.1017268865283
 10
275.5983092834743
 20
778.1082512142869
 10
276.7536222994291
 20
778.9820505889706
 10
277.9877624160882
 20
779.7088804811854
 10
279.2733431308831
 20
780.2808434629081
 10
280.5828868292704
 20
780.6964499017749
 10
281.8905148911968
 20
780.9600845764175
 10
283.1732760448537
 20
781.0810233531987
 10
283.48774515945
 20
781.0904151377587
 10
283.6438586252971
 20
781.0921366682206
 10
283.8235456068088
 20
781.0922795914722
 10
284.3414261971503
 20
781.0922795914722
 10
288.4844709198817
 20
781.0922795914722
 10
296.7705603653444
 20
781.0922795914722
 10
329.9149181471955
 20
781.0922795914722
 10
346.4870970381212
 20
781.0922795914722
 10
354.773186483584
 20
781.0922795914722
 10
356.8447088449496
 20
781.0922795914722
 10
357.8804700256325
 20
781.0922795914722
 10
358.398350615974
 20
781.0922795914722
 10
358.6572909111446
 20
781.0922795914722
 10
358.7355513613
 20
781.0922388419495
 10
359.3639033922388
 20
781.0748291686979
 10
360.6501676448019
 20
780.9397896904421
 10
361.9591073102145
 20
780.6609121421862
 10
363.2674225546869
 20
780.2293682045794
 10
364.5490022610246
 20
779.6413368595467
 10
365.7762956038851
 20
778.8989499436025
 10
366.9220300873818
 20
778.0107699693935
 10
367.9610819545406
 20
776.991663617475
 10
368.8722490538842
 20
775.8620293812779
 10
369.6396733576411
 20
774.6464547495642
 10
370.2537166919215
 20
773.3719849308696
 10
370.7111949095488
 20
772.0662505269652
 10
371.0149932936656
 20
770.7557086344015
 10
371.1731865691574
 20
769.4642036220312
 10
371.2013334877809
 20
768.8320717658545
 10
371.1652619042062
 20
768.5922795914722
 10
370.9995401152969
 20
768.5922795914722
 10
369.6737658040229
 20
768.5922795914722
 10
367.0222171814747
 20
768.5922795914722
 10
365.6964428702007
 20
768.5922795914722
 10
365.3649992923822
 20
768.5922795914722
 10
365.2036337108977
 20
768.5704985543483
 10
365.2036337108977
 20
767.741889609802
 10
365.2036337108977
 20
764.4274538316168
 10
365.2036337108977
 20
751.1697107188764
 10
365.2036337108977
 20
744.5408391625063
 10
365.2036337108977
 20
741.2264033843212
 10
365.2036337108977
 20
739.5691854952286
 10
365.2036337108977
 20
738.7405765506825
 10
365.2154047662831
 20
738.5922795914722
 10
365.2568352135104
 20
738.5922795914722
 10
365.339696107965
 20
738.5922795914722
 10
367.991244730513
 20
738.5922795914722
 10
370.6427933530612
 20
738.5922795914722
 10
370.9742369308797
 20
738.5922795914722
 10
371.1399587197889
 20
738.5922795914722
 10
371.2036337108977
 20
738.5523089595018
 10
371.2036337108977
 20
738.3796820960546
 10
371.2036337108977
 20
736.9986671884775
 10
371.2036337108977
 20
734.2366373733233
 10
371.2036337108977
 20
728.7125777430149
 10
371.2036337108977
 20
727.3315628354376
 10
371.2036337108977
 20
726.6410553816491
 10
371.2036337108977
 20
726.2958016547549
 10
371.2036337108977
 20
726.1231747913077
 10
370.9598552494856
 20
726.0922795914722
 10
366.2091639674203
 20
726.0922795914722
 10
356.7077814032897
 20
726.0922795914722
 10
351.9570901212244
 20
726.0922795914722
 10
350.769417300708
 20
726.0922795914722
 10
350.1755808904499
 20
726.0922795914722
 10
349.8786626853207
 20
726.0922795914722
 10
349.7036337108978
 20
726.1262951907391
 10
349.7036337108978
 20
726.7891823463761
 10
349.7036337108978
 20
732.0922795914723
  0
LWPOLYLINE
  5
6CE
330
1F
100
AcDbEntity
  8
VISIBLE
100
AcDbPolyline
 90
      114
 70
     1
 43
0.0
 10
452.3945910283248
 20
732.0922795914722
 10
402.0151671999111
 20
732.0922795914722
 10
395.7177392213595
 20
732.0922795914722
 10
395.3945910283248
 20
732.0848647435117
 10
395.3945910283248
 20
732.0434342962844
 10
395.3945910283248
 20
731.9605734018296
 10
395.3945910283248
 20
731.7948516129205
 10
395.3945910283248
 20
731.4634080351021
 10
395.3945910283248
 20
730.1376337238281
 10
395.3945910283248
 20
727.48608510128
 10
395.3945910283248
 20
726.1603107900059
 10
395.3414512846078
 20
726.0922795914723
 10
395.0445330794788
 20
726.0922795914723
 10
394.4506966692206
 20
726.0922795914723
 10
393.2630238487043
 20
726.0922795914723
 10
390.8876782076715
 20
726.0922795914723
 10
381.386295643541
 20
726.0922795914722
 10
376.6356043614757
 20
726.0922795914722
 10
374.260258720443
 20
726.0922795914722
 10
373.9633405153139
 20
726.0922795914722
 10
373.8945910283248
 20
726.1031122767028
 10
373.8945910283248
 20
726.2498451106329
 10
373.8945910283248
 20
726.5433107784931
 10
373.8945910283248
 20
727.7171734499337
 10
373.8945910283248
 20
730.0648987928148
 10
373.8945910283248
 20
748.8467015358638
 10
373.8945910283248
 20
767.6285042789128
 10
373.8945910283248
 20
768.215435614633
 10
373.8945910283248
 20
768.5089012824931
 10
373.8947150481328
 20
768.6479615438413
 10
373.9000276458505
 20
768.9609066134501
 10
373.9348940616082
 20
769.5952509258558
 10
374.1075319288252
 20
770.8897083031853
 10
374.4268094253282
 20
772.2009086251879
 10
374.9003199022963
 20
773.5046854461776
 10
375.5303592316499
 20
774.7743882501839
 10
376.3130888409731
 20
775.9823617051177
 10
377.2382103715008
 20
777.1017268865283
 10
378.2892666009015
 20
778.1082512142869
 10
379.4445796168564
 20
778.9820505889706
 10
380.6787197335154
 20
779.7088804811854
 10
381.9643004483103
 20
780.2808434629081
 10
383.2738441466975
 20
780.6964499017749
 10
384.5814722086237
 20
780.9600845764175
 10
385.8642333622808
 20
781.0810233531987
 10
386.1787024768771
 20
781.0904151377587
 10
386.3348159427242
 20
781.0921366682206
 10
386.5145029242359
 20
781.0922795914722
 10
387.0323835145774
 20
781.0922795914722
 10
391.1754282373088
 20
781.0922795914722
 10
399.4615176827715
 20
781.0922795914722
 10
432.6058754646226
 20
781.0922795914722
 10
449.1780543555482
 20
781.0922795914722
 10
457.464143801011
 20
781.0922795914722
 10
459.5356661623767
 20
781.0922795914722
 10
460.5714273430596
 20
781.0922795914722
 10
461.0893079334011
 20
781.0922795914722
 10
461.3482482285717
 20
781.0922795914722
 10
461.4265086787271
 20
781.0922388419495
 10
462.054860709666
 20
781.0748291686979
 10
463.341124962229
 20
780.9397896904421
 10
464.6500646276415
 20
780.6609121421862
 10
465.9583798721139
 20
780.2293682045794
 10
467.2399595784517
 20
779.6413368595467
 10
468.4672529213122
 20
778.8989499436025
 10
469.6129874048089
 20
778.0107699693935
 10
470.6520392719677
 20
776.991663617475
 10
471.5632063713113
 20
775.8620293812779
 10
472.3306306750681
 20
774.6464547495642
 10
472.9446740093486
 20
773.3719849308696
 10
473.4021522269758
 20
772.0662505269652
 10
473.7059506110926
 20
770.7557086344015
 10
473.8641438865844
 20
769.4642036220312
 10
473.8922908052078
 20
768.8320717658545
 10
473.8562192216333
 20
768.5922795914722
 10
473.690497432724
 20
768.5922795914722
 10
472.3647231214499
 20
768.5922795914722
 10
469.7131744989018
 20
768.5922795914722
 10
468.3874001876278
 20
768.5922795914722
 10
468.0559566098093
 20
768.5922795914722
 10
467.8945910283248
 20
768.5704985543483
 10
467.8945910283248
 20
767.741889609802
 10
467.8945910283248
 20
764.4274538316168
 10
467.8945910283248
 20
751.1697107188764
 10
467.8945910283248
 20
744.5408391625063
 10
467.8945910283248
 20
741.2264033843212
 10
467.8945910283248
 20
739.5691854952286
 10
467.8945910283248
 20
738.7405765506825
 10
467.9063620837101
 20
738.5922795914722
 10
467.9477925309375
 20
738.5922795914722
 10
468.030653425392
 20
738.5922795914722
 10
470.6822020479401
 20
738.5922795914722
 10
473.3337506704883
 20
738.5922795914722
 10
473.6651942483067
 20
738.5922795914722
 10
473.830916037216
 20
738.5922795914722
 10
473.8945910283248
 20
738.5523089595018
 10
473.8945910283248
 20
738.3796820960546
 10
473.8945910283248
 20
736.9986671884775
 10
473.8945910283248
 20
734.2366373733233
 10
473.8945910283248
 20
728.7125777430149
 10
473.8945910283248
 20
727.3315628354376
 10
473.8945910283248
 20
726.6410553816491
 10
473.8945910283248
 20
726.2958016547549
 10
473.8945910283248
 20
726.1231747913077
 10
473.6508125669127
 20
726.0922795914722
 10
468.9001212848474
 20
726.0922795914722
 10
459.3987387207167
 20
726.0922795914722
 10
454.6480474386514
 20
726.0922795914722
 10
453.4603746181351
 20
726.0922795914722
 10
452.8665382078769
 20
726.0922795914722
 10
452.5696200027478
 20
726.0922795914722
 10
452.3945910283248
 20
726.1262951907391
 10
452.3945910283248
 20
726.7891823463761
 10
452.3945910283248
 20
732.0922795914723
  0
LINE
  5
723
330
1F
100
AcDbEntity
  8
0
100
AcDbLine
 10
411.5136816602462
 20
683.436400511462
 30
0.0
 11
405.5136816602463
 21
683.436400511462
 31
0.0
  0
LINE
  5
724
330
1F
100
AcDbEntity
  8
0
100
AcDbLine
 10
405.5136816602463
 20
683.436400511462
 30
0.0
 11
405.5136816602463
 21
670.936400511462
 31
0.0
  0
ENDSEC
  0
SECTION
  2
OBJECTS
  0
DICTIONARY
  5
C
330
0
100
AcDbDictionary
281
     1
  3
ACAD_CIP_PREVIOUS_PRODUCT_INFO
350
2FA
  3
ACAD_COLOR
350
2ED
  3
ACAD_DETAILVIEWSTYLE
350
2F3
  3
ACAD_FIELDLIST
350
1A1
  3
ACAD_GROUP
350
D
  3
ACAD_LAYOUT
350
1A
  3
ACAD_MATERIAL
350
43
  3
ACAD_MLEADERSTYLE
350
2C8
  3
ACAD_MLINESTYLE
350
17
  3
ACAD_PLOTSETTINGS
350
19
  3
ACAD_PLOTSTYLENAME
350
2E9
  3
ACAD_SCALELIST
350
47
  3
ACAD_SECTIONVIEWSTYLE
350
2F1
  3
ACAD_TABLESTYLE
350
2EE
  3
ACAD_VISUALSTYLE
350
2A
  3
ACDB_RECOMPOSE_DATA
350
727
  3
ACDBVARIABLEDICTIONARY
350
6C
  3
DWGPROPS
350
728
  3
ONSHAPE_DATA
350
275
  0
DICTIONARY
  5
6CF
330
10
100
AcDbDictionary
280
     1
281
     1
  3
ADSK_XREC_LAYER_RECONCILED
360
6D0
  0
DICTIONARY
  5
6D1
330
E7
100
AcDbDictionary
280
     1
281
     1
  3
ADSK_XREC_LAYER_RECONCILED
360
6D2
  0
DICTIONARY
  5
6D3
330
181
100
AcDbDictionary
280
     1
281
     1
  3
ADSK_XREC_LAYER_RECONCILED
360
6D4
  0
DICTIONARY
  5
6D5
330
1A2
100
AcDbDictionary
280
     1
281
     1
  3
ADSK_XREC_LAYER_RECONCILED
360
6D6
  0
DICTIONARY
  5
6D7
330
349
100
AcDbDictionary
280
     1
281
     1
  3
ADSK_XREC_LAYER_RECONCILED
360
6D8
  0
DICTIONARY
  5
3DB
330
1F
100
AcDbDictionary
280
     1
281
     1
  3
ACAD_SORTENTS
360
3DC
  0
DICTIONARY
  5
17F
330
17E
100
AcDbDictionary
280
     1
281
     1
  3
ONSHAPE_VIEW_ID
360
180
  0
DICTIONARY
  5
184
330
183
100
AcDbDictionary
280
     1
281
     1
  3
ONSHAPE_VIEW_ID
360
185
  0
DICTIONARY
  5
187
330
186
100
AcDbDictionary
280
     1
281
     1
  3
ONSHAPE_VIEW_ID
360
188
  0
DICTIONARY
  5
18D
330
18C
100
AcDbDictionary
280
     1
281
     1
  3
ONSHAPE_VIEW_ID
360
18E
  0
DICTIONARY
  5
191
330
190
100
AcDbDictionary
280
     1
281
     1
  3
ONSHAPE_VIEW_ID
360
192
  0
DICTIONARY
  5
195
330
194
100
AcDbDictionary
280
     1
281
     1
  3
ONSHAPE_VIEW_ID
360
196
  0
DICTIONARY
  5
199
330
198
100
AcDbDictionary
280
     1
281
     1
  3
ONSHAPE_VIEW_ID
360
19A
  0
DICTIONARY
  5
19C
330
19B
100
AcDbDictionary
280
     1
281
     1
  3
ONSHAPE_VIEW_ID
360
19D
  0
XRECORD
  5
2FA
102
{ACAD_REACTORS
330
C
102
}
330
C
100
AcDbXrecord
280
     1
300
ACD
300
2019
300

  0
DICTIONARY
  5
2ED
102
{ACAD_REACTORS
330
C
102
}
330
C
100
AcDbDictionary
281
     1
  0
DICTIONARY
  5
2F3
102
{ACAD_REACTORS
330
C
102
}
330
C
100
AcDbDictionary
281
     1
  3
Metric50
350
2F4
  0
FIELDLIST
  5
1A1
102
{ACAD_REACTORS
330
C
102
}
330
C
100
AcDbIdSet
 90
        0
100
AcDbFieldList
  0
DICTIONARY
  5
D
102
{ACAD_REACTORS
330
C
102
}
330
C
100
AcDbDictionary
281
     1
  0
DICTIONARY
  5
1A
102
{ACAD_REACTORS
330
C
102
}
330
C
100
AcDbDictionary
281
     1
  3
Layout1
350
2F6
  3
Model
350
2F5
  0
DICTIONARY
  5
43
102
{ACAD_REACTORS
330
C
102
}
330
C
100
AcDbDictionary
281
     1
  3
BYBLOCK
350
45
  3
BYLAYER
350
44
  3
GLOBAL
350
46
  0
DICTIONARY
  5
2C8
102
{ACAD_REACTORS
330
C
102
}
330
C
100
AcDbDictionary
281
     1
  3
Standard
350
2F0
  0
DICTIONARY
  5
17
102
{ACAD_REACTORS
330
C
102
}
330
C
100
AcDbDictionary
281
     1
  3
STANDARD
350
18
  0
DICTIONARY
  5
19
102
{ACAD_REACTORS
330
C
102
}
330
C
100
AcDbDictionary
281
     1
  0
ACDBDICTIONARYWDFLT
  5
2E9
102
{ACAD_REACTORS
330
C
102
}
330
C
100
AcDbDictionary
281
     1
  3
Normal
350
2EA
100
AcDbDictionaryWithDefault
340
2EA
  0
DICTIONARY
  5
47
102
{ACAD_REACTORS
330
C
102
}
330
C
100
AcDbDictionary
281
     1
  3
A0
350
48
  3
A1
350
49
  3
A2
350
4A
  3
A3
350
4B
  3
A4
350
4C
  3
A5
350
4D
  3
A6
350
4E
  3
A7
350
4F
  3
A8
350
50
  3
A9
350
51
  3
B0
350
52
  3
B1
350
53
  3
B2
350
54
  3
B3
350
55
  3
B4
350
56
  3
B5
350
57
  3
B6
350
58
  3
B7
350
59
  3
B8
350
5A
  3
B9
350
5B
  3
C0
350
5C
  3
C1
350
5D
  3
C2
350
5E
  3
C3
350
5F
  3
C4
350
60
  3
C5
350
61
  3
C6
350
62
  3
C7
350
63
  3
C8
350
64
  3
C9
350
65
  3
D0
350
66
  3
D1
350
67
  3
D2
350
68
  0
DICTIONARY
  5
2F1
102
{ACAD_REACTORS
330
C
102
}
330
C
100
AcDbDictionary
281
     1
  3
Metric50
350
2F2
  0
DICTIONARY
  5
2EE
102
{ACAD_REACTORS
330
C
102
}
330
C
100
AcDbDictionary
281
     1
  3
Standard
350
2EF
  0
DICTIONARY
  5
2A
102
{ACAD_REACTORS
330
C
102
}
330
C
100
AcDbDictionary
281
     1
  3
2DWIREFRAME
350
2F
  3
BASIC
350
32
  3
BRIGHTEN
350
36
  3
COLORCHANGE
350
3A
  3
CONCEPTUAL
350
34
  3
DIM
350
35
  3
EDGECOLOROFF
350
3D
  3
FACEPATTERN
350
39
  3
FLAT
350
2B
  3
FLATWITHEDGES
350
2C
  3
GOURAUD
350
2D
  3
GOURAUDWITHEDGES
350
2E
  3
HIDDEN
350
31
  3
JITTEROFF
350
3B
  3
LINEPATTERN
350
38
  3
OVERHANGOFF
350
3C
  3
REALISTIC
350
33
  3
SHADED
350
42
  3
Shaded with edges
350
2EC
  3
SHADED_WITH_EDGES
350
41
  3
Shades of Gray
350
2EB
  3
SHADES_OF_GRAY
350
3E
  3
SKETCHY
350
3F
  3
THICKEN
350
37
  3
WIREFRAME
350
30
  3
X-RAY
350
40
  0
XRECORD
  5
727
102
{ACAD_REACTORS
330
C
102
}
330
C
100
AcDbXrecord
280
     1
 90
        1
330
2EF
  0
DICTIONARY
  5
6C
102
{ACAD_REACTORS
330
C
102
}
330
C
100
AcDbDictionary
281
     1
  3
CANNOSCALE
350
2DF
  3
CMLEADERSTYLE
350
6D9
  3
CTABLESTYLE
350
2C7
  3
CVIEWDETAILSTYLE
350
6DA
  3
CVIEWSECTIONSTYLE
350
6DB
  3
DIMASSOC
350
2CD
  3
HIDETEXT
350
2CE
  3
INDEXCTL
350
6DD
  3
MSLTSCALE
350
2E0
  3
OLEFRAME
350
6D
  3
PSOLHEIGHT
350
6DF
  3
PSOLWIDTH
350
6DE
  3
SORTENTS
350
6DC
  3
XCLIPFRAME
350
6E0
  0
XRECORD
  5
728
102
{ACAD_REACTORS
330
C
102
}
330
C
100
AcDbXrecord
280
     1
  1
DWGPROPS COOKIE
  2

  3

  4

  6

  7

  8
jmontalvon
  9

300
=
301
=
302
=
303
=
304
=
305
=
306
=
307
=
308
=
309
=
 40
0.0122800925925926
 41
2458616.183090278
 42
2458615.987465278
  1

 90
        0
  0
DICTIONARY
  5
275
102
{ACAD_REACTORS
330
C
102
}
330
C
100
AcDbDictionary
280
     1
281
     1
  3
DIM_UNITS
360
276
  3
ONSHAPE_VSHARP_EXTENSION
360
278
  3
ONSHAPE_WELD_STANDARD
360
277
  0
XRECORD
  5
6D0
102
{ACAD_REACTORS
330
6CF
102
}
330
6CF
100
AcDbXrecord
280
     1
290
     1
  0
XRECORD
  5
6D2
102
{ACAD_REACTORS
330
6D1
102
}
330
6D1
100
AcDbXrecord
280
     1
290
     1
  0
XRECORD
  5
6D4
102
{ACAD_REACTORS
330
6D3
102
}
330
6D3
100
AcDbXrecord
280
     1
290
     1
  0
XRECORD
  5
6D6
102
{ACAD_REACTORS
330
6D5
102
}
330
6D5
100
AcDbXrecord
280
     1
290
     1
  0
XRECORD
  5
6D8
102
{ACAD_REACTORS
330
6D7
102
}
330
6D7
100
AcDbXrecord
280
     1
290
     1
  0
SORTENTSTABLE
  5
3DC
102
{ACAD_REACTORS
330
3DB
102
}
330
3DB
100
AcDbSortentsTable
330
1F
331
376
  5
4E8
331
377
  5
4E9
331
378
  5
4EA
331
379
  5
4EB
331
37A
  5
4EC
331
37B
  5
4ED
331
37C
  5
4EE
331
37D
  5
4EF
331
37E
  5
4F0
331
37F
  5
4F1
331
380
  5
4F2
331
53C
  5
533
331
53D
  5
532
331
53E
  5
531
331
550
  5
51F
331
551
  5
51E
331
552
  5
51D
331
553
  5
51C
331
554
  5
51B
331
555
  5
51A
331
556
  5
519
331
557
  5
518
331
558
  5
517
331
559
  5
516
331
55A
  5
515
331
55B
  5
514
331
55C
  5
513
331
55D
  5
512
331
55E
  5
511
331
55F
  5
510
331
560
  5
50F
331
561
  5
50E
331
562
  5
50D
331
563
  5
50C
331
564
  5
50B
331
565
  5
50A
331
566
  5
509
331
567
  5
508
331
568
  5
507
331
569
  5
506
331
56A
  5
505
331
56B
  5
504
331
56C
  5
503
331
56D
  5
502
331
56E
  5
501
331
56F
  5
500
331
570
  5
4FF
331
571
  5
4FE
331
572
  5
4FD
331
573
  5
4FC
331
574
  5
4FB
331
575
  5
4FA
331
576
  5
4F9
331
577
  5
4F8
331
578
  5
4F7
331
579
  5
4F6
331
57A
  5
4F5
331
57B
  5
4F4
331
57C
  5
4F3
331
57D
  5
4E7
331
57E
  5
4E6
331
57F
  5
4E5
331
580
  5
4E4
331
581
  5
4E3
331
582
  5
4E2
331
583
  5
4E1
331
584
  5
4E0
331
585
  5
4DC
331
586
  5
4D4
331
587
  5
4D3
331
588
  5
4D2
331
589
  5
4D1
331
58A
  5
4D0
331
58B
  5
4CF
331
58C
  5
4CE
331
58D
  5
4CD
331
58E
  5
4CC
331
58F
  5
4CB
331
590
  5
4CA
331
591
  5
4C9
331
592
  5
4C8
331
593
  5
4C7
331
594
  5
4C6
331
595
  5
4C5
331
596
  5
4C4
331
597
  5
4C3
331
598
  5
4C2
331
599
  5
4C1
331
59A
  5
4C0
331
59B
  5
4BF
331
59C
  5
4BE
331
59D
  5
4BD
331
59E
  5
4BC
331
59F
  5
4BB
331
5A0
  5
4BA
331
5A1
  5
4B9
331
5A2
  5
4B8
331
5A3
  5
4B7
331
5A4
  5
4B6
331
5A5
  5
4B5
331
5A6
  5
4B4
331
5A7
  5
4B3
331
5A8
  5
4B2
331
5A9
  5
4B1
331
5AA
  5
4B0
331
5AB
  5
4AF
331
5AC
  5
4AE
331
5AD
  5
4AD
331
5AE
  5
4AC
331
5AF
  5
4AB
331
5B0
  5
4AA
331
5B1
  5
4A9
331
5B2
  5
4A8
331
5B3
  5
4A7
331
5B4
  5
4A6
331
5B5
  5
4A5
331
5B6
  5
4A4
331
5B7
  5
4A3
331
5B8
  5
4A2
331
5B9
  5
4A1
331
5BA
  5
4A0
331
5BB
  5
49F
331
5BC
  5
49E
331
5BD
  5
49D
331
5BE
  5
49C
331
5BF
  5
49B
331
5C0
  5
49A
331
5C1
  5
499
331
5C2
  5
498
331
5C3
  5
497
331
5C4
  5
496
331
5C5
  5
495
331
5C6
  5
494
331
5C7
  5
493
331
5C8
  5
492
331
5C9
  5
491
331
5CA
  5
490
331
5CB
  5
480
331
5CC
  5
470
331
5CD
  5
46F
331
5CE
  5
46E
331
5CF
  5
46D
331
5D0
  5
46C
331
5D1
  5
46B
331
5D2
  5
46A
331
5D3
  5
469
331
5D4
  5
468
331
5D5
  5
467
331
5D6
  5
466
331
5D7
  5
465
331
5D8
  5
464
331
5D9
  5
463
331
5DA
  5
462
331
5DB
  5
461
331
5DC
  5
460
331
5DD
  5
45F
331
5DE
  5
45E
331
5DF
  5
45D
331
5E0
  5
45C
331
5E1
  5
45B
331
5E2
  5
45A
331
5E3
  5
459
331
5E4
  5
458
331
5E5
  5
457
331
5E6
  5
456
331
5E7
  5
455
331
5E8
  5
454
331
5E9
  5
453
331
5EA
  5
452
331
5EB
  5
451
331
5EC
  5
450
331
5ED
  5
44F
331
5EE
  5
44E
331
5EF
  5
44D
331
5F0
  5
44C
331
5F1
  5
44B
331
5F2
  5
44A
331
5F3
  5
449
331
5F4
  5
448
331
5F5
  5
447
331
5F6
  5
446
331
5F7
  5
445
331
5F8
  5
444
331
5F9
  5
443
331
5FA
  5
442
331
5FB
  5
441
331
5FC
  5
440
331
5FD
  5
43F
331
5FE
  5
43E
331
5FF
  5
43D
331
600
  5
43C
331
601
  5
43B
331
602
  5
43A
331
603
  5
439
331
604
  5
438
331
605
  5
437
331
606
  5
436
331
607
  5
435
331
608
  5
434
331
609
  5
433
331
60A
  5
432
331
60B
  5
431
331
60C
  5
430
331
60D
  5
42F
331
60E
  5
42E
331
60F
  5
42D
331
610
  5
42C
331
611
  5
42B
331
612
  5
42A
331
613
  5
429
331
614
  5
428
331
615
  5
427
331
616
  5
426
331
617
  5
425
331
618
  5
424
331
619
  5
423
331
61A
  5
422
331
61B
  5
421
331
61C
  5
420
331
61D
  5
41F
331
61E
  5
41E
331
61F
  5
41D
331
620
  5
41C
331
621
  5
41B
331
622
  5
41A
331
623
  5
419
331
624
  5
418
331
625
  5
417
331
626
  5
416
331
627
  5
415
331
628
  5
414
331
629
  5
413
331
62A
  5
412
331
62B
  5
411
331
62C
  5
410
331
62D
  5
40F
331
62E
  5
40E
331
62F
  5
40D
331
630
  5
40C
331
631
  5
40B
331
632
  5
40A
331
633
  5
409
331
634
  5
408
331
635
  5
407
331
636
  5
406
331
637
  5
405
331
638
  5
404
331
639
  5
403
331
63A
  5
402
331
63B
  5
401
331
63C
  5
400
331
63D
  5
3FF
331
63E
  5
3FE
331
63F
  5
3FD
331
640
  5
3FC
331
641
  5
3FB
331
642
  5
3FA
331
643
  5
3F9
331
644
  5
3F8
331
645
  5
3F7
331
646
  5
3F6
331
647
  5
3F5
331
648
  5
3F4
331
649
  5
3F3
331
64A
  5
3F2
331
64B
  5
3F1
331
64C
  5
3F0
331
64D
  5
3EF
331
64E
  5
3EE
331
64F
  5
3ED
331
650
  5
3EC
331
651
  5
3EB
331
652
  5
3EA
331
653
  5
3E9
331
654
  5
3E8
331
655
  5
3E7
331
656
  5
3E6
331
657
  5
3E5
331
658
  5
3E4
331
659
  5
3E3
331
65A
  5
3E2
331
65B
  5
3E1
331
65C
  5
3E0
331
65D
  5
3DF
331
65E
  5
3DE
331
65F
  5
3DD
331
660
  5
3D9
331
661
  5
3D8
331
662
  5
3D7
331
663
  5
3D6
331
664
  5
3D5
331
665
  5
3D4
331
666
  5
3D3
331
667
  5
3D2
331
668
  5
3D1
331
669
  5
3D0
331
66A
  5
3CF
331
66B
  5
3CE
331
66C
  5
3CD
331
66D
  5
3CC
331
66E
  5
3CB
331
66F
  5
3CA
331
670
  5
3C9
331
671
  5
3C8
331
672
  5
3C7
331
673
  5
3C6
331
674
  5
3C5
331
675
  5
3C4
331
676
  5
3C3
331
677
  5
3C2
331
678
  5
3C1
331
679
  5
3C0
331
67A
  5
3BF
331
67B
  5
3BE
331
67C
  5
3BD
331
67D
  5
3BC
331
67E
  5
3BB
331
67F
  5
3BA
331
680
  5
3B9
331
681
  5
3B8
331
682
  5
3B7
331
683
  5
3B6
331
684
  5
3B5
331
685
  5
3B4
331
686
  5
3B3
331
687
  5
3B2
331
688
  5
3B1
331
689
  5
3B0
331
68A
  5
3AF
331
68B
  5
3AE
331
68C
  5
3AD
331
68D
  5
3AC
331
68E
  5
3AB
331
68F
  5
3AA
331
690
  5
3A9
331
691
  5
3A8
331
692
  5
3A7
331
693
  5
3A6
331
694
  5
3A5
331
695
  5
3A4
331
696
  5
3A3
331
697
  5
3A2
331
698
  5
3A1
331
699
  5
3A0
331
69A
  5
39F
331
69B
  5
39E
331
69C
  5
39D
331
69D
  5
39C
331
69E
  5
39B
331
69F
  5
390
331
6A0
  5
38E
331
6A1
  5
380
331
6A2
  5
37F
331
6A3
  5
37E
331
6A4
  5
37D
331
6A5
  5
37C
331
6A6
  5
37B
331
6A7
  5
37A
331
6A8
  5
379
331
6A9
  5
378
331
6AA
  5
377
331
6AB
  5
376
331
6AC
  5
25F
331
6AD
  5
25C
331
6AE
  5
25A
331
6AF
  5
259
331
6B0
  5
258
331
6B1
  5
257
331
6B2
  5
256
331
6B3
  5
255
  0
XRECORD
  5
180
102
{ACAD_REACTORS
330
17F
102
}
330
17F
100
AcDbXrecord
280
     1
330
0
  0
XRECORD
  5
185
102
{ACAD_REACTORS
330
184
102
}
330
184
100
AcDbXrecord
280
     1
330
0
  0
XRECORD
  5
188
102
{ACAD_REACTORS
330
187
102
}
330
187
100
AcDbXrecord
280
     1
330
0
  0
XRECORD
  5
18E
102
{ACAD_REACTORS
330
18D
102
}
330
18D
100
AcDbXrecord
280
     1
330
0
  0
XRECORD
  5
192
102
{ACAD_REACTORS
330
191
102
}
330
191
100
AcDbXrecord
280
     1
330
0
  0
XRECORD
  5
196
102
{ACAD_REACTORS
330
195
102
}
330
195
100
AcDbXrecord
280
     1
330
0
  0
XRECORD
  5
19A
102
{ACAD_REACTORS
330
199
102
}
330
199
100
AcDbXrecord
280
     1
330
0
  0
XRECORD
  5
19D
102
{ACAD_REACTORS
330
19C
102
}
330
19C
100
AcDbXrecord
280
     1
330
0
  0
ACDBDETAILVIEWSTYLE
  5
2F4
102
{ACAD_XDICTIONARY
360
761
102
}
102
{ACAD_REACTORS
330
2F3
102
}
330
2F3
100
AcDbModelDocViewStyle
 70
     0
  3
Metric50
290
     0
100
AcDbDetailViewStyle
 70
     0
 71
     0
 90
        3
 71
     1
340
11
 40
5.0
340
0
 40
5.0
300

 40
0.0
280
     1
 71
     2
340
16
 90
       25
 71
     3
340
11
 40
5.0
 90
        0
 40
15.0
 90
        1
300
%<\AcVar ViewDetailId>% (%<\AcVar ViewScale \f "%sn">%)
 71
     4
340
16
 90
       25
340
16
 90
       25
280
     0
  0
LAYOUT
  5
2F6
102
{ACAD_XDICTIONARY
360
765
102
}
102
{ACAD_REACTORS
330
1A
102
}
330
1A
100
AcDbPlotSettings
  1

  2
\\DMCSPVWPRNSFQ01.ad.hct.ac.ae\DMC-Staff-BW
  4

  6

 40
0.0
 41
0.0
 42
0.0
 43
0.0
 44
0.0
 45
0.0
 46
0.0
 47
0.0
 48
0.0
 49
0.0
140
0.0
141
0.0
142
1.0
143
1.0
 70
   688
 72
     0
 73
     0
 74
     5
  7

 75
    16
147
1.0
148
0.0
149
0.0
100
AcDbLayout
  1
Layout1
 70
     1
 71
     1
 10
0.0
 20
0.0
 11
420.0
 21
297.0
 12
0.0
 22
0.0
 32
0.0
 14
1.000000000000000E+20
 24
1.000000000000000E+20
 34
1.000000000000000E+20
 15
-1.000000000000000E+20
 25
-1.000000000000000E+20
 35
-1.000000000000000E+20
146
0.0
 13
0.0
 23
0.0
 33
0.0
 16
1.0
 26
0.0
 36
0.0
 17
0.0
 27
1.0
 37
0.0
 76
     0
330
1B
  0
LAYOUT
  5
2F5
102
{ACAD_XDICTIONARY
360
763
102
}
102
{ACAD_REACTORS
330
1A
102
}
330
1A
100
AcDbPlotSettings
  1

  2
\\DMCSPVWPRNSFQ01.ad.hct.ac.ae\DMC-Staff-BW
  4

  6

 40
0.0
 41
0.0
 42
0.0
 43
0.0
 44
0.0
 45
0.0
 46
0.0
 47
0.0
 48
0.0
 49
0.0
140
0.0
141
0.0
142
1.0
143
1.0
 70
  1712
 72
     0
 73
     0
 74
     0
  7

 75
     0
147
1.0
148
0.0
149
0.0
100
AcDbLayout
  1
Model
 70
     1
 71
     0
 10
0.0
 20
0.0
 11
12.0
 21
9.0
 12
0.0
 22
0.0
 32
0.0
 14
0.0
 24
0.0
 34
0.0
 15
0.0
 25
0.0
 35
0.0
146
0.0
 13
0.0
 23
0.0
 33
0.0
 16
1.0
 26
0.0
 36
0.0
 17
0.0
 27
1.0
 37
0.0
 76
     0
330
1F
331
29
  0
MATERIAL
  5
45
102
{ACAD_XDICTIONARY
360
2E3
102
}
102
{ACAD_REACTORS
330
43
102
}
330
43
100
AcDbMaterial
  1
BYBLOCK
  0
MATERIAL
  5
44
102
{ACAD_XDICTIONARY
360
2E1
102
}
102
{ACAD_REACTORS
330
43
102
}
330
43
100
AcDbMaterial
  1
BYLAYER
  0
MATERIAL
  5
46
102
{ACAD_XDICTIONARY
360
2E5
102
}
102
{ACAD_REACTORS
330
43
102
}
330
43
100
AcDbMaterial
  1
GLOBAL
  0
MLEADERSTYLE
  5
2F0
102
{ACAD_REACTORS
330
2C8
102
}
330
2C8
100
AcDbMLeaderStyle
170
     2
171
     1
172
     0
 90
        2
 40
0.0
 41
0.0
173
     1
 91
-1056964608
340
14
 92
       -2
290
     1
 42
2.0
291
     1
 43
0.36
  3
Standard
 44
4.0
300

342
11
174
     1
178
     6
175
     1
176
     0
 93
-1056964608
 45
4.0
292
     0
297
     0
 46
4.0
 94
-1056964608
 47
1.0
 49
1.0
140
1.0
293
     1
141
0.0
294
     1
177
     0
142
1.0
295
     0
296
     0
143
0.125
1001
ACAD_MLEADERVER
1070
     2
  0
MLINESTYLE
  5
18
102
{ACAD_REACTORS
330
17
102
}
330
17
100
AcDbMlineStyle
  2
STANDARD
 70
     0
  3

 62
   256
 51
90.0
 52
90.0
 71
     2
 49
0.5
 62
   256
  6
BYLAYER
 49
-0.5
 62
   256
  6
BYLAYER
  0
ACDBPLACEHOLDER
  5
2EA
102
{ACAD_REACTORS
330
2E9
102
}
330
2E9
  0
SCALE
  5
48
102
{ACAD_REACTORS
330
47
102
}
330
47
100
AcDbScale
 70
     0
300
1:1
140
1.0
141
1.0
290
     1
  0
SCALE
  5
49
102
{ACAD_REACTORS
330
47
102
}
330
47
100
AcDbScale
 70
     0
300
1:2
140
1.0
141
2.0
290
     0
  0
SCALE
  5
4A
102
{ACAD_REACTORS
330
47
102
}
330
47
100
AcDbScale
 70
     0
300
1:4
140
1.0
141
4.0
290
     0
  0
SCALE
  5
4B
102
{ACAD_REACTORS
330
47
102
}
330
47
100
AcDbScale
 70
     0
300
1:5
140
1.0
141
5.0
290
     0
  0
SCALE
  5
4C
102
{ACAD_REACTORS
330
47
102
}
330
47
100
AcDbScale
 70
     0
300
1:8
140
1.0
141
8.0
290
     0
  0
SCALE
  5
4D
102
{ACAD_REACTORS
330
47
102
}
330
47
100
AcDbScale
 70
     0
300
1:10
140
1.0
141
10.0
290
     0
  0
SCALE
  5
4E
102
{ACAD_REACTORS
330
47
102
}
330
47
100
AcDbScale
 70
     0
300
1:16
140
1.0
141
16.0
290
     0
  0
SCALE
  5
4F
102
{ACAD_REACTORS
330
47
102
}
330
47
100
AcDbScale
 70
     0
300
1:20
140
1.0
141
20.0
290
     0
  0
SCALE
  5
50
102
{ACAD_REACTORS
330
47
102
}
330
47
100
AcDbScale
 70
     0
300
1:30
140
1.0
141
30.0
290
     0
  0
SCALE
  5
51
102
{ACAD_REACTORS
330
47
102
}
330
47
100
AcDbScale
 70
     0
300
1:40
140
1.0
141
40.0
290
     0
  0
SCALE
  5
52
102
{ACAD_REACTORS
330
47
102
}
330
47
100
AcDbScale
 70
     0
300
1:50
140
1.0
141
50.0
290
     0
  0
SCALE
  5
53
102
{ACAD_REACTORS
330
47
102
}
330
47
100
AcDbScale
 70
     0
300
1:100
140
1.0
141
100.0
290
     0
  0
SCALE
  5
54
102
{ACAD_REACTORS
330
47
102
}
330
47
100
AcDbScale
 70
     0
300
2:1
140
2.0
141
1.0
290
     0
  0
SCALE
  5
55
102
{ACAD_REACTORS
330
47
102
}
330
47
100
AcDbScale
 70
     0
300
4:1
140
4.0
141
1.0
290
     0
  0
SCALE
  5
56
102
{ACAD_REACTORS
330
47
102
}
330
47
100
AcDbScale
 70
     0
300
8:1
140
8.0
141
1.0
290
     0
  0
SCALE
  5
57
102
{ACAD_REACTORS
330
47
102
}
330
47
100
AcDbScale
 70
     0
300
10:1
140
10.0
141
1.0
290
     0
  0
SCALE
  5
58
102
{ACAD_REACTORS
330
47
102
}
330
47
100
AcDbScale
 70
     0
300
100:1
140
100.0
141
1.0
290
     0
  0
SCALE
  5
59
102
{ACAD_REACTORS
330
47
102
}
330
47
100
AcDbScale
 70
     0
300
1/128" = 1'-0"
140
0.0078125
141
12.0
290
     0
  0
SCALE
  5
5A
102
{ACAD_REACTORS
330
47
102
}
330
47
100
AcDbScale
 70
     0
300
1/64" = 1'-0"
140
0.015625
141
12.0
290
     0
  0
SCALE
  5
5B
102
{ACAD_REACTORS
330
47
102
}
330
47
100
AcDbScale
 70
     0
300
1/32" = 1'-0"
140
0.03125
141
12.0
290
     0
  0
SCALE
  5
5C
102
{ACAD_REACTORS
330
47
102
}
330
47
100
AcDbScale
 70
     0
300
1/16" = 1'-0"
140
0.0625
141
12.0
290
     0
  0
SCALE
  5
5D
102
{ACAD_REACTORS
330
47
102
}
330
47
100
AcDbScale
 70
     0
300
3/32" = 1'-0"
140
0.09375
141
12.0
290
     0
  0
SCALE
  5
5E
102
{ACAD_REACTORS
330
47
102
}
330
47
100
AcDbScale
 70
     0
300
1/8" = 1'-0"
140
0.125
141
12.0
290
     0
  0
SCALE
  5
5F
102
{ACAD_REACTORS
330
47
102
}
330
47
100
AcDbScale
 70
     0
300
3/16" = 1'-0"
140
0.1875
141
12.0
290
     0
  0
SCALE
  5
60
102
{ACAD_REACTORS
330
47
102
}
330
47
100
AcDbScale
 70
     0
300
1/4" = 1'-0"
140
0.25
141
12.0
290
     0
  0
SCALE
  5
61
102
{ACAD_REACTORS
330
47
102
}
330
47
100
AcDbScale
 70
     0
300
3/8" = 1'-0"
140
0.375
141
12.0
290
     0
  0
SCALE
  5
62
102
{ACAD_REACTORS
330
47
102
}
330
47
100
AcDbScale
 70
     0
300
1/2" = 1'-0"
140
0.5
141
12.0
290
     0
  0
SCALE
  5
63
102
{ACAD_REACTORS
330
47
102
}
330
47
100
AcDbScale
 70
     0
300
3/4" = 1'-0"
140
0.75
141
12.0
290
     0
  0
SCALE
  5
64
102
{ACAD_REACTORS
330
47
102
}
330
47
100
AcDbScale
 70
     0
300
1" = 1'-0"
140
1.0
141
12.0
290
     0
  0
SCALE
  5
65
102
{ACAD_REACTORS
330
47
102
}
330
47
100
AcDbScale
 70
     0
300
1-1/2" = 1'-0"
140
1.5
141
12.0
290
     0
  0
SCALE
  5
66
102
{ACAD_REACTORS
330
47
102
}
330
47
100
AcDbScale
 70
     0
300
3" = 1'-0"
140
3.0
141
12.0
290
     0
  0
SCALE
  5
67
102
{ACAD_REACTORS
330
47
102
}
330
47
100
AcDbScale
 70
     0
300
6" = 1'-0"
140
6.0
141
12.0
290
     0
  0
SCALE
  5
68
102
{ACAD_REACTORS
330
47
102
}
330
47
100
AcDbScale
 70
     0
300
1'-0" = 1'-0"
140
12.0
141
12.0
290
     0
  0
ACDBSECTIONVIEWSTYLE
  5
2F2
102
{ACAD_XDICTIONARY
360
75F
102
}
102
{ACAD_REACTORS
330
2F1
102
}
330
2F1
100
AcDbModelDocViewStyle
 70
     0
  3
Metric50
290
     0
100
AcDbSectionViewStyle
 70
     0
 71
     0
 90
      102
 71
     1
340
11
 40
5.0
340
0
340
0
 40
5.0
300
I, O, Q, S, X, Z
 40
10.0
 90
        0
 40
2.5
 90
        0
 71
     2
340
16
 90
       25
340
16
 90
       50
 40
5.0
 40
2.5
 40
5.0
 71
     3
340
11
 40
5.0
 90
        0
 40
15.0
 90
        1
300
%<\AcVar ViewSectionStartId>%-%<\AcVar ViewSectionEndId>% (%<\AcVar ViewScale \f "%sn">%)
 71
     4
300
ANSI31
 40
1.0
 90
        0
290
     0
290
     0
 90
        6
 40
0.0
 40
1.570796326794896
 40
0.2617993877991494
 40
1.308996938995747
 40
-0.2617993877991494
 40
1.832595714594046
  0
TABLESTYLE
  5
2EF
102
{ACAD_XDICTIONARY
360
725
102
}
102
{ACAD_REACTORS
330
2EE
102
}
330
2EE
100
AcDbTableStyle
  3
Standard
 70
     0
 71
     0
 40
1.5
 41
1.5
280
     0
281
     0
  7
STANDARD
140
4.5
170
     2
 62
     0
 63
     7
283
     0
274
    -2
284
     1
 64
     0
275
    -2
285
     1
 65
     0
276
    -2
286
     1
 66
     0
277
    -2
287
     1
 67
     0
278
    -2
288
     1
 68
     0
279
    -2
289
     1
 69
     0
  7
STANDARD
140
6.0
170
     5
 62
     0
 63
     7
283
     0
274
    -2
284
     1
 64
     0
275
    -2
285
     1
 65
     0
276
    -2
286
     1
 66
     0
277
    -2
287
     1
 67
     0
278
    -2
288
     1
 68
     0
279
    -2
289
     1
 69
     0
  7
STANDARD
140
4.5
170
     5
 62
     0
 63
     7
283
     0
274
    -2
284
     1
 64
     0
275
    -2
285
     1
 65
     0
276
    -2
286
     1
 66
     0
277
    -2
287
     1
 67
     0
278
    -2
288
     1
 68
     0
279
    -2
289
     1
 69
     0
  0
VISUALSTYLE
  5
2F
102
{ACAD_XDICTIONARY
360
731
102
}
102
{ACAD_REACTORS
330
2A
102
}
330
2A
100
AcDbVisualStyle
  2
2dWireframe
 70
     4
 71
     0
 72
     2
 73
     0
 90
        0
 40
-0.6
 41
-30.0
 62
     5
 63
     7
 74
     1
 91
        4
 64
     7
 65
   257
 75
     1
175
     1
 42
1.0
 92
        0
 66
   257
 43
1.0
 76
     1
 77
     6
 78
     2
 67
     7
 79
     5
170
     0
171
     0
290
     0
174
     0
 93
        1
 44
0.0
173
     0
291
     0
 45
0.0
1001
ACAD
1000
AcDbSavedByObjectVersion
1070
     0
  0
VISUALSTYLE
  5
32
102
{ACAD_XDICTIONARY
360
737
102
}
102
{ACAD_REACTORS
330
2A
102
}
330
2A
100
AcDbVisualStyle
  2
Basic
 70
     7
 71
     1
 72
     0
 73
     1
 90
        0
 40
-0.6
 41
-30.0
 62
     5
 63
     7
 74
     0
 91
        4
 64
     7
 65
   257
 75
     1
175
     1
 42
1.0
 92
        8
 66
     7
 43
1.0
 76
     1
 77
     6
 78
     2
 67
     7
 79
     5
170
     0
171
     0
290
     0
174
     0
 93
        1
 44
0.0
173
     0
291
     1
 45
0.0
1001
ACAD
1000
AcDbSavedByObjectVersion
1070
     0
  0
VISUALSTYLE
  5
36
102
{ACAD_XDICTIONARY
360
73F
102
}
102
{ACAD_REACTORS
330
2A
102
}
330
2A
100
AcDbVisualStyle
  2
Brighten
 70
    12
 71
     2
 72
     2
 73
     0
 90
        0
 40
-0.6
 41
-30.0
 62
     5
 63
     7
 74
     1
 91
        4
 64
     7
 65
   257
 75
     1
175
     1
 42
1.0
 92
        8
 66
     7
 43
1.0
 76
     1
 77
     6
 78
     2
 67
     7
 79
     5
170
     0
171
     0
290
     0
174
     0
 93
        1
 44
50.0
173
     0
291
     1
 45
0.0
1001
ACAD
1000
AcDbSavedByObjectVersion
1070
     0
  0
VISUALSTYLE
  5
3A
102
{ACAD_XDICTIONARY
360
747
102
}
102
{ACAD_REACTORS
330
2A
102
}
330
2A
100
AcDbVisualStyle
  2
ColorChange
 70
    16
 71
     2
 72
     2
 73
     3
 90
        0
 40
-0.6
 41
-30.0
 62
     5
 63
     8
 74
     1
 91
        4
 64
     7
 65
   257
 75
     1
175
     1
 42
1.0
 92
        8
 66
     8
 43
1.0
 76
     1
 77
     6
 78
     2
 67
     7
 79
     5
170
     0
171
     0
290
     0
174
     0
 93
        1
 44
0.0
173
     0
291
     1
 45
0.0
1001
ACAD
1000
AcDbSavedByObjectVersion
1070
     0
  0
VISUALSTYLE
  5
34
102
{ACAD_XDICTIONARY
360
73B
102
}
102
{ACAD_REACTORS
330
2A
102
}
330
2A
100
AcDbVisualStyle
  2
Conceptual
 70
     9
 71
     3
 72
     2
 73
     0
 90
        0
 40
-0.6
 41
-30.0
 62
     5
 63
     7
 74
     2
 91
        2
 64
     7
 65
   257
 75
     1
175
     1
 42
179.0
 92
        8
 66
     7
 43
1.0
 76
     1
 77
     6
 78
     2
 67
     7
 79
     3
170
     0
171
     0
290
     0
174
     0
 93
        1
 44
0.0
173
     0
291
     0
 45
0.0
1001
ACAD
1000
AcDbSavedByObjectVersion
1070
     0
  0
VISUALSTYLE
  5
35
102
{ACAD_XDICTIONARY
360
73D
102
}
102
{ACAD_REACTORS
330
2A
102
}
330
2A
100
AcDbVisualStyle
  2
Dim
 70
    11
 71
     2
 72
     2
 73
     0
 90
        0
 40
-0.6
 41
-30.0
 62
     5
 63
     7
 74
     1
 91
        4
 64
     7
 65
   257
 75
     1
175
     1
 42
1.0
 92
        8
 66
     7
 43
1.0
 76
     1
 77
     6
 78
     2
 67
     7
 79
     5
170
     0
171
     0
290
     0
174
     0
 93
        1
 44
-50.0
173
     0
291
     1
 45
0.0
1001
ACAD
1000
AcDbSavedByObjectVersion
1070
     0
  0
VISUALSTYLE
  5
3D
102
{ACAD_XDICTIONARY
360
74D
102
}
102
{ACAD_REACTORS
330
2A
102
}
330
2A
100
AcDbVisualStyle
  2
EdgeColorOff
 70
    22
 71
     2
 72
     2
 73
     0
 90
        0
 40
-0.6
 41
-30.0
 62
     5
 63
     7
 74
     1
 91
        4
 64
     7
 65
   257
 75
     1
175
     1
 42
1.0
 92
        8
 66
     7
 43
1.0
 76
     1
 77
     6
 78
     2
 67
     7
 79
     5
170
     0
171
     0
290
     0
174
     0
 93
        1
 44
0.0
173
     0
291
     1
 45
0.0
1001
ACAD
1000
AcDbSavedByObjectVersion
1070
     0
  0
VISUALSTYLE
  5
39
102
{ACAD_XDICTIONARY
360
745
102
}
102
{ACAD_REACTORS
330
2A
102
}
330
2A
100
AcDbVisualStyle
  2
Facepattern
 70
    15
 71
     2
 72
     2
 73
     0
 90
        0
 40
-0.6
 41
-30.0
 62
     5
 63
     7
 74
     1
 91
        4
 64
     7
 65
   257
 75
     1
175
     1
 42
1.0
 92
        8
 66
     7
 43
1.0
 76
     1
 77
     6
 78
     2
 67
     7
 79
     5
170
     0
171
     0
290
     0
174
     0
 93
        1
 44
0.0
173
     0
291
     1
 45
0.0
1001
ACAD
1000
AcDbSavedByObjectVersion
1070
     0
  0
VISUALSTYLE
  5
2B
102
{ACAD_XDICTIONARY
360
729
102
}
102
{ACAD_REACTORS
330
2A
102
}
330
2A
100
AcDbVisualStyle
  2
Flat
 70
     0
 71
     2
 72
     1
 73
     1
 90
        2
 40
-0.6
 41
30.0
 62
     5
 63
     7
 74
     0
 91
        0
 64
     7
 65
   257
 75
     1
175
     1
 42
1.0
 92
        8
 66
     7
 43
1.0
 76
     1
 77
     6
 78
     2
 67
     7
 79
     5
170
     0
171
     0
290
     0
174
     0
 93
       13
 44
0.0
173
     0
291
     1
 45
0.0
1001
ACAD
1000
AcDbSavedByObjectVersion
1070
     0
  0
VISUALSTYLE
  5
2C
102
{ACAD_XDICTIONARY
360
72B
102
}
102
{ACAD_REACTORS
330
2A
102
}
330
2A
100
AcDbVisualStyle
  2
FlatWithEdges
 70
     1
 71
     2
 72
     1
 73
     1
 90
        2
 40
-0.6
 41
30.0
 62
     5
 63
     7
 74
     1
 91
        0
 64
     7
 65
   257
 75
     1
175
     1
 42
1.0
 92
        0
 66
   257
 43
1.0
 76
     1
 77
     6
 78
     2
 67
     7
 79
     5
170
     0
171
     0
290
     0
174
     0
 93
       13
 44
0.0
173
     0
291
     1
 45
0.0
1001
ACAD
1000
AcDbSavedByObjectVersion
1070
     0
  0
VISUALSTYLE
  5
2D
102
{ACAD_XDICTIONARY
360
72D
102
}
102
{ACAD_REACTORS
330
2A
102
}
330
2A
100
AcDbVisualStyle
  2
Gouraud
 70
     2
 71
     2
 72
     2
 73
     1
 90
        2
 40
-0.6
 41
30.0
 62
     5
 63
     7
 74
     0
 91
        0
 64
     7
 65
   257
 75
     1
175
     1
 42
1.0
 92
        0
 66
     7
 43
1.0
 76
     1
 77
     6
 78
     2
 67
     7
 79
     5
170
     0
171
     0
290
     0
174
     0
 93
       13
 44
0.0
173
     0
291
     1
 45
0.0
1001
ACAD
1000
AcDbSavedByObjectVersion
1070
     0
  0
VISUALSTYLE
  5
2E
102
{ACAD_XDICTIONARY
360
72F
102
}
102
{ACAD_REACTORS
330
2A
102
}
330
2A
100
AcDbVisualStyle
  2
GouraudWithEdges
 70
     3
 71
     2
 72
     2
 73
     1
 90
        2
 40
-0.6
 41
30.0
 62
     5
 63
     7
 74
     1
 91
        0
 64
     7
 65
   257
 75
     1
175
     1
 42
1.0
 92
        0
 66
   257
 43
1.0
 76
     1
 77
     6
 78
     2
 67
     7
 79
     5
170
     0
171
     0
290
     0
174
     0
 93
       13
 44
0.0
173
     0
291
     1
 45
0.0
1001
ACAD
1000
AcDbSavedByObjectVersion
1070
     0
  0
VISUALSTYLE
  5
31
102
{ACAD_XDICTIONARY
360
735
102
}
102
{ACAD_REACTORS
330
2A
102
}
330
2A
100
AcDbVisualStyle
  2
Hidden
 70
     6
 71
     1
 72
     2
 73
     2
 90
        0
 40
-0.6
 41
-30.0
 62
     5
 63
     7
 74
     2
 91
        2
 64
     7
 65
   257
 75
     2
175
     1
 42
40.0
 92
        0
 66
   257
 43
1.0
 76
     1
 77
     6
 78
     2
 67
     7
 79
     3
170
     0
171
     0
290
     0
174
     0
 93
        1
 44
0.0
173
     0
291
     0
 45
0.0
1001
ACAD
1000
AcDbSavedByObjectVersion
1070
     0
  0
VISUALSTYLE
  5
3B
102
{ACAD_XDICTIONARY
360
749
102
}
102
{ACAD_REACTORS
330
2A
102
}
330
2A
100
AcDbVisualStyle
  2
JitterOff
 70
    20
 71
     2
 72
     2
 73
     0
 90
        0
 40
-0.6
 41
-30.0
 62
     5
 63
     7
 74
     1
 91
        4
 64
     7
 65
   257
 75
     1
175
     1
 42
1.0
 92
       10
 66
     7
 43
1.0
 76
     1
 77
     6
 78
     2
 67
     7
 79
     5
170
     0
171
     0
290
     0
174
     0
 93
        1
 44
0.0
173
     0
291
     1
 45
0.0
1001
ACAD
1000
AcDbSavedByObjectVersion
1070
     0
  0
VISUALSTYLE
  5
38
102
{ACAD_XDICTIONARY
360
743
102
}
102
{ACAD_REACTORS
330
2A
102
}
330
2A
100
AcDbVisualStyle
  2
Linepattern
 70
    14
 71
     2
 72
     2
 73
     0
 90
        0
 40
-0.6
 41
-30.0
 62
     5
 63
     7
 74
     1
 91
        4
 64
     7
 65
   257
 75
     7
175
     7
 42
1.0
 92
        8
 66
     7
 43
1.0
 76
     1
 77
     6
 78
     2
 67
     7
 79
     5
170
     0
171
     0
290
     0
174
     0
 93
        1
 44
0.0
173
     0
291
     1
 45
0.0
1001
ACAD
1000
AcDbSavedByObjectVersion
1070
     0
  0
VISUALSTYLE
  5
3C
102
{ACAD_XDICTIONARY
360
74B
102
}
102
{ACAD_REACTORS
330
2A
102
}
330
2A
100
AcDbVisualStyle
  2
OverhangOff
 70
    21
 71
     2
 72
     2
 73
     0
 90
        0
 40
-0.6
 41
-30.0
 62
     5
 63
     7
 74
     1
 91
        4
 64
     7
 65
   257
 75
     1
175
     1
 42
1.0
 92
        9
 66
     7
 43
1.0
 76
     1
 77
     6
 78
     2
 67
     7
 79
     5
170
     0
171
     0
290
     0
174
     0
 93
        1
 44
0.0
173
     0
291
     1
 45
0.0
1001
ACAD
1000
AcDbSavedByObjectVersion
1070
     0
  0
VISUALSTYLE
  5
33
102
{ACAD_XDICTIONARY
360
739
102
}
102
{ACAD_REACTORS
330
2A
102
}
330
2A
100
AcDbVisualStyle
  2
Realistic
 70
     8
 71
     2
 72
     3
 73
     0
 90
        2
 40
-0.6
 41
30.0
 62
     5
 63
     7
 74
     0
 91
        0
 64
     7
 65
   257
 75
     1
175
     1
 42
1.0
 92
        8
 66
   257
 43
1.0
 76
     1
 77
     6
 78
     2
 67
     7
 79
     3
170
     0
171
     0
290
     0
174
     0
 93
       13
 44
0.0
173
     0
291
     0
 45
0.0
1001
ACAD
1000
AcDbSavedByObjectVersion
1070
     0
  0
VISUALSTYLE
  5
42
102
{ACAD_XDICTIONARY
360
757
102
}
102
{ACAD_REACTORS
330
2A
102
}
330
2A
100
AcDbVisualStyle
  2
Shaded
 70
    27
 71
     2
 72
     2
 73
     1
 90
        2
 40
-0.6
 41
30.0
 62
     5
 63
     7
 74
     0
 91
        4
 64
     7
 65
   257
 75
     1
175
     1
 42
1.0
 92
        8
 66
   257
 43
1.0
 76
     1
 77
     6
 78
     2
 67
     8
 79
     3
170
     0
171
     0
290
     0
174
     0
 93
        5
 44
0.0
173
     0
291
     0
 45
0.0
1001
ACAD
1000
AcDbSavedByObjectVersion
1070
     0
  0
VISUALSTYLE
  5
2EC
102
{ACAD_XDICTIONARY
360
75B
102
}
102
{ACAD_REACTORS
330
2A
102
}
330
2A
100
AcDbVisualStyle
  2
Shaded with edges
 70
    26
 71
     2
 72
     2
 73
     1
 90
        2
 40
-0.6
 41
30.0
 62
     5
 63
     7
 74
     1
 91
        2
 64
     7
 65
   257
 75
     2
175
     1
 42
1.0
 92
        8
 66
   257
 43
1.0
 76
     1
 77
     6
 78
     2
 67
     7
 79
     3
170
     0
171
     0
290
     0
174
     0
 93
        5
 44
0.0
173
     0
291
     0
 45
0.0
1001
ACAD
1000
AcDbSavedByObjectVersion
1070
     0
  0
VISUALSTYLE
  5
41
102
{ACAD_XDICTIONARY
360
755
102
}
102
{ACAD_REACTORS
330
2A
102
}
330
2A
100
AcDbVisualStyle
  2
Shaded with edges
 70
    26
 71
     2
 72
     2
 73
     1
 90
        2
 40
-0.6
 41
30.0
 62
     5
 63
     7
 74
     1
 91
        2
 64
     7
 65
   257
 75
     2
175
     1
 42
1.0
 92
        8
 66
   257
 43
1.0
 76
     1
 77
     6
 78
     2
 67
     7
 79
     3
170
     0
171
     0
290
     0
174
     0
 93
        5
 44
0.0
173
     0
291
     0
 45
0.0
1001
ACAD
1000
AcDbSavedByObjectVersion
1070
     0
  0
VISUALSTYLE
  5
2EB
102
{ACAD_XDICTIONARY
360
759
102
}
102
{ACAD_REACTORS
330
2A
102
}
330
2A
100
AcDbVisualStyle
  2
Shades of Gray
 70
    23
 71
     2
 72
     2
 73
     3
 90
        0
 40
-0.6
 41
-30.0
 62
     5
 63
     7
 74
     2
 91
        2
 64
     7
 65
     7
 75
     1
175
     1
 42
40.0
 92
        8
 66
     7
 43
1.0
 76
     1
 77
     6
 78
     2
 67
     7
 79
     3
170
     0
171
     0
290
     0
174
     0
 93
        1
 44
0.0
173
     0
291
     0
 45
0.0
1001
ACAD
1000
AcDbSavedByObjectVersion
1070
     0
  0
VISUALSTYLE
  5
3E
102
{ACAD_XDICTIONARY
360
74F
102
}
102
{ACAD_REACTORS
330
2A
102
}
330
2A
100
AcDbVisualStyle
  2
Shades of Gray
 70
    23
 71
     2
 72
     2
 73
     3
 90
        0
 40
-0.6
 41
-30.0
 62
     5
 63
     7
 74
     2
 91
        2
 64
     7
 65
     7
 75
     1
175
     1
 42
40.0
 92
        8
 66
     7
 43
1.0
 76
     1
 77
     6
 78
     2
 67
     7
 79
     3
170
     0
171
     0
290
     0
174
     0
 93
        1
 44
0.0
173
     0
291
     0
 45
0.0
1001
ACAD
1000
AcDbSavedByObjectVersion
1070
     0
  0
VISUALSTYLE
  5
3F
102
{ACAD_XDICTIONARY
360
751
102
}
102
{ACAD_REACTORS
330
2A
102
}
330
2A
100
AcDbVisualStyle
  2
Sketchy
 70
    24
 71
     1
 72
     2
 73
     2
 90
        0
 40
-0.6
 41
-30.0
 62
     5
 63
     7
 74
     2
 91
        2
 64
     7
 65
     7
 75
     1
175
     1
 42
40.0
 92
       11
 66
     7
 43
1.0
 76
     1
 77
     6
 78
     2
 67
     7
 79
     6
170
     0
171
     0
290
     0
174
     0
 93
        1
 44
0.0
173
     0
291
     0
 45
0.0
1001
ACAD
1000
AcDbSavedByObjectVersion
1070
     0
  0
VISUALSTYLE
  5
37
102
{ACAD_XDICTIONARY
360
741
102
}
102
{ACAD_REACTORS
330
2A
102
}
330
2A
100
AcDbVisualStyle
  2
Thicken
 70
    13
 71
     2
 72
     2
 73
     0
 90
        0
 40
-0.6
 41
-30.0
 62
     5
 63
     7
 74
     1
 91
        4
 64
     7
 65
   257
 75
     1
175
     1
 42
1.0
 92
       12
 66
     7
 43
1.0
 76
     1
 77
     6
 78
     2
 67
     7
 79
     5
170
     0
171
     0
290
     0
174
     0
 93
        1
 44
0.0
173
     0
291
     1
 45
0.0
1001
ACAD
1000
AcDbSavedByObjectVersion
1070
     0
  0
VISUALSTYLE
  5
30
102
{ACAD_XDICTIONARY
360
733
102
}
102
{ACAD_REACTORS
330
2A
102
}
330
2A
100
AcDbVisualStyle
  2
Wireframe
 70
     5
 71
     0
 72
     2
 73
     0
 90
        0
 40
-0.6
 41
-30.0
 62
     5
 63
     7
 74
     1
 91
        4
 64
     7
 65
   257
 75
     1
175
     1
 42
1.0
 92
        0
 66
   257
 43
1.0
 76
     1
 77
     6
 78
     2
 67
     7
 79
     3
170
     0
171
     0
290
     0
174
     0
 93
        1
 44
0.0
173
     0
291
     0
 45
0.0
1001
ACAD
1000
AcDbSavedByObjectVersion
1070
     0
  0
VISUALSTYLE
  5
40
102
{ACAD_XDICTIONARY
360
753
102
}
102
{ACAD_REACTORS
330
2A
102
}
330
2A
100
AcDbVisualStyle
  2
X-Ray
 70
    25
 71
     2
 72
     2
 73
     1
 90
        1
 40
0.5
 41
-30.0
 62
     5
 63
     7
 74
     1
 91
        0
 64
     7
 65
   257
 75
     1
175
     1
 42
1.0
 92
        8
 66
     7
 43
1.0
 76
     1
 77
     6
 78
     2
 67
     7
 79
     3
170
     0
171
     0
290
     0
174
     0
 93
       13
 44
0.0
173
     0
291
     0
 45
0.0
1001
ACAD
1000
AcDbSavedByObjectVersion
1070
     0
  0
DICTIONARYVAR
  5
2DF
102
{ACAD_REACTORS
330
6C
102
}
330
6C
100
DictionaryVariables
280
     0
  1
1:1
  0
DICTIONARYVAR
  5
6D9
102
{ACAD_REACTORS
330
6C
102
}
330
6C
100
DictionaryVariables
280
     0
  1
STANDARD
  0
DICTIONARYVAR
  5
2C7
102
{ACAD_REACTORS
330
6C
102
}
330
6C
100
DictionaryVariables
280
     0
  1
STANDARD
  0
DICTIONARYVAR
  5
6DA
102
{ACAD_REACTORS
330
6C
102
}
330
6C
100
DictionaryVariables
280
     0
  1
Metric50
  0
DICTIONARYVAR
  5
6DB
102
{ACAD_REACTORS
330
6C
102
}
330
6C
100
DictionaryVariables
280
     0
  1
Metric50
  0
DICTIONARYVAR
  5
2CD
102
{ACAD_REACTORS
330
6C
102
}
330
6C
100
DictionaryVariables
280
     0
  1
2
  0
DICTIONARYVAR
  5
2CE
102
{ACAD_REACTORS
330
6C
102
}
330
6C
100
DictionaryVariables
280
     0
  1
1
  0
DICTIONARYVAR
  5
6DD
102
{ACAD_REACTORS
330
6C
102
}
330
6C
100
DictionaryVariables
280
     0
  1
0
  0
DICTIONARYVAR
  5
2E0
102
{ACAD_REACTORS
330
6C
102
}
330
6C
100
DictionaryVariables
280
     0
  1
1
  0
DICTIONARYVAR
  5
6D
102
{ACAD_REACTORS
330
6C
102
}
330
6C
100
DictionaryVariables
280
     0
  1
0
  0
DICTIONARYVAR
  5
6DF
102
{ACAD_REACTORS
330
6C
102
}
330
6C
100
DictionaryVariables
280
     0
  1
80.000000
  0
DICTIONARYVAR
  5
6DE
102
{ACAD_REACTORS
330
6C
102
}
330
6C
100
DictionaryVariables
280
     0
  1
5.000000
  0
DICTIONARYVAR
  5
6DC
102
{ACAD_REACTORS
330
6C
102
}
330
6C
100
DictionaryVariables
280
     0
  1
127
  0
DICTIONARYVAR
  5
6E0
102
{ACAD_REACTORS
330
6C
102
}
330
6C
100
DictionaryVariables
280
     0
  1
2
  0
XRECORD
  5
276
102
{ACAD_REACTORS
330
275
102
}
330
275
100
AcDbXrecord
280
     1
 70
     4
  0
XRECORD
  5
278
102
{ACAD_REACTORS
330
275
102
}
330
275
100
AcDbXrecord
280
     1
 90
        0
  0
XRECORD
  5
277
102
{ACAD_REACTORS
330
275
102
}
330
275
100
AcDbXrecord
280
     1
 90
        1
  0
DICTIONARY
  5
761
330
2F4
100
AcDbDictionary
280
     1
281
     1
  3
ACAD_XREC_ROUNDTRIP
360
762
  0
DICTIONARY
  5
765
330
2F6
100
AcDbDictionary
280
     1
281
     1
  3
ACAD_XREC_ROUNDTRIP
360
766
  0
DICTIONARY
  5
763
330
2F5
100
AcDbDictionary
280
     1
281
     1
  3
ACAD_XREC_ROUNDTRIP
360
764
  0
DICTIONARY
  5
2E3
330
45
100
AcDbDictionary
280
     1
281
     1
  3
ACAD_XREC_ROUNDTRIP
360
2E4
  0
DICTIONARY
  5
2E1
330
44
100
AcDbDictionary
280
     1
281
     1
  3
ACAD_XREC_ROUNDTRIP
360
2E2
  0
DICTIONARY
  5
2E5
330
46
100
AcDbDictionary
280
     1
281
     1
  3
ACAD_XREC_ROUNDTRIP
360
2E6
  0
DICTIONARY
  5
75F
330
2F2
100
AcDbDictionary
280
     1
281
     1
  3
ACAD_XREC_ROUNDTRIP
360
760
  0
DICTIONARY
  5
725
330
2EF
100
AcDbDictionary
280
     1
281
     1
  3
ACAD_ROUNDTRIP_2008_TABLESTYLE_CELLSTYLEMAP
360
726
  3
ACAD_XREC_ROUNDTRIP
360
75D
  0
DICTIONARY
  5
731
330
2F
100
AcDbDictionary
280
     1
281
     1
  3
ACAD_XREC_ROUNDTRIP
360
732
  0
DICTIONARY
  5
737
330
32
100
AcDbDictionary
280
     1
281
     1
  3
ACAD_XREC_ROUNDTRIP
360
738
  0
DICTIONARY
  5
73F
330
36
100
AcDbDictionary
280
     1
281
     1
  3
ACAD_XREC_ROUNDTRIP
360
740
  0
DICTIONARY
  5
747
330
3A
100
AcDbDictionary
280
     1
281
     1
  3
ACAD_XREC_ROUNDTRIP
360
748
  0
DICTIONARY
  5
73B
330
34
100
AcDbDictionary
280
     1
281
     1
  3
ACAD_XREC_ROUNDTRIP
360
73C
  0
DICTIONARY
  5
73D
330
35
100
AcDbDictionary
280
     1
281
     1
  3
ACAD_XREC_ROUNDTRIP
360
73E
  0
DICTIONARY
  5
74D
330
3D
100
AcDbDictionary
280
     1
281
     1
  3
ACAD_XREC_ROUNDTRIP
360
74E
  0
DICTIONARY
  5
745
330
39
100
AcDbDictionary
280
     1
281
     1
  3
ACAD_XREC_ROUNDTRIP
360
746
  0
DICTIONARY
  5
729
330
2B
100
AcDbDictionary
280
     1
281
     1
  3
ACAD_XREC_ROUNDTRIP
360
72A
  0
DICTIONARY
  5
72B
330
2C
100
AcDbDictionary
280
     1
281
     1
  3
ACAD_XREC_ROUNDTRIP
360
72C
  0
DICTIONARY
  5
72D
330
2D
100
AcDbDictionary
280
     1
281
     1
  3
ACAD_XREC_ROUNDTRIP
360
72E
  0
DICTIONARY
  5
72F
330
2E
100
AcDbDictionary
280
     1
281
     1
  3
ACAD_XREC_ROUNDTRIP
360
730
  0
DICTIONARY
  5
735
330
31
100
AcDbDictionary
280
     1
281
     1
  3
ACAD_XREC_ROUNDTRIP
360
736
  0
DICTIONARY
  5
749
330
3B
100
AcDbDictionary
280
     1
281
     1
  3
ACAD_XREC_ROUNDTRIP
360
74A
  0
DICTIONARY
  5
743
330
38
100
AcDbDictionary
280
     1
281
     1
  3
ACAD_XREC_ROUNDTRIP
360
744
  0
DICTIONARY
  5
74B
330
3C
100
AcDbDictionary
280
     1
281
     1
  3
ACAD_XREC_ROUNDTRIP
360
74C
  0
DICTIONARY
  5
739
330
33
100
AcDbDictionary
280
     1
281
     1
  3
ACAD_XREC_ROUNDTRIP
360
73A
  0
DICTIONARY
  5
757
330
42
100
AcDbDictionary
280
     1
281
     1
  3
ACAD_XREC_ROUNDTRIP
360
758
  0
DICTIONARY
  5
75B
330
2EC
100
AcDbDictionary
280
     1
281
     1
  3
ACAD_XREC_ROUNDTRIP
360
75C
  0
DICTIONARY
  5
755
330
41
100
AcDbDictionary
280
     1
281
     1
  3
ACAD_XREC_ROUNDTRIP
360
756
  0
DICTIONARY
  5
759
330
2EB
100
AcDbDictionary
280
     1
281
     1
  3
ACAD_XREC_ROUNDTRIP
360
75A
  0
DICTIONARY
  5
74F
330
3E
100
AcDbDictionary
280
     1
281
     1
  3
ACAD_XREC_ROUNDTRIP
360
750
  0
DICTIONARY
  5
751
330
3F
100
AcDbDictionary
280
     1
281
     1
  3
ACAD_XREC_ROUNDTRIP
360
752
  0
DICTIONARY
  5
741
330
37
100
AcDbDictionary
280
     1
281
     1
  3
ACAD_XREC_ROUNDTRIP
360
742
  0
DICTIONARY
  5
733
330
30
100
AcDbDictionary
280
     1
281
     1
  3
ACAD_XREC_ROUNDTRIP
360
734
  0
DICTIONARY
  5
753
330
40
100
AcDbDictionary
280
     1
281
     1
  3
ACAD_XREC_ROUNDTRIP
360
754
  0
XRECORD
  5
762
102
{ACAD_REACTORS
330
761
102
}
330
761
100
AcDbXrecord
280
     1
102
DISPLAYNAME
  1
Metric50
102
FLAGS
 90
        0
  0
XRECORD
  5
766
102
{ACAD_REACTORS
330
765
102
}
330
765
100
AcDbXrecord
280
     1
102
SHADEPLOT
 70
     0
102
SHADEPLOTRESLEVEL
 70
     2
102
SHADEPLOTCUSTOMDPI
 70
   300
  0
XRECORD
  5
764
102
{ACAD_REACTORS
330
763
102
}
330
763
100
AcDbXrecord
280
     1
102
SHADEPLOT
 70
     0
102
SHADEPLOTRESLEVEL
 70
     2
102
SHADEPLOTCUSTOMDPI
 70
   300
  0
XRECORD
  5
2E4
102
{ACAD_REACTORS
330
2E3
102
}
330
2E3
100
AcDbXrecord
280
     1
102
MATERIAL
148
0.0
149
0.0
149
0.0
 93
        0
 94
      127
282
     0
 72
     1
 77
     1
171
     1
175
     1
179
     1
273
     0
  0
XRECORD
  5
2E2
102
{ACAD_REACTORS
330
2E1
102
}
330
2E1
100
AcDbXrecord
280
     1
102
MATERIAL
148
0.0
149
0.0
149
0.0
 93
        0
 94
      127
282
     0
 72
     1
 77
     1
171
     1
175
     1
179
     1
273
     0
  0
XRECORD
  5
2E6
102
{ACAD_REACTORS
330
2E5
102
}
330
2E5
100
AcDbXrecord
280
     1
102
MATERIAL
148
0.0
149
0.0
149
0.0
 93
        0
 94
      127
282
     0
 72
     1
 77
     1
171
     1
175
     1
179
     1
273
     0
  0
XRECORD
  5
760
102
{ACAD_REACTORS
330
75F
102
}
330
75F
100
AcDbXrecord
280
     1
102
DISPLAYNAME
  1
Metric50
102
FLAGS
 90
        0
  0
CELLSTYLEMAP
  5
726
102
{ACAD_REACTORS
330
725
102
}
330
725
100
AcDbCellStyleMap
 90
        3
300
CELLSTYLE
  1
TABLEFORMAT_BEGIN
 90
        5
170
     1
 91
        0
 92
    32768
 62
   257
 93
        1
300
CONTENTFORMAT
  1
CONTENTFORMAT_BEGIN
 90
        0
 91
        0
 92
      512
 93
        0
300

 40
0.0
140
1.0
 94
        5
 62
     0
340
11
144
6.0
309
CONTENTFORMAT_END
171
     1
301
MARGIN
  1
CELLMARGIN_BEGIN
 40
1.5
 40
1.5
 40
1.5
 40
1.5
 40
4.5
 40
4.5
309
CELLMARGIN_END
 94
        6
 95
        1
302
GRIDFORMAT
  1
GRIDFORMAT_BEGIN
 90
        0
 91
        1
 62
     0
 92
       -2
340
0
 93
        0
 40
1.125
309
GRIDFORMAT_END
 95
        2
302
GRIDFORMAT
  1
GRIDFORMAT_BEGIN
 90
        0
 91
        1
 62
     0
 92
       -2
340
0
 93
        0
 40
1.125
309
GRIDFORMAT_END
 95
        4
302
GRIDFORMAT
  1
GRIDFORMAT_BEGIN
 90
        0
 91
        1
 62
     0
 92
       -2
340
0
 93
        0
 40
1.125
309
GRIDFORMAT_END
 95
        8
302
GRIDFORMAT
  1
GRIDFORMAT_BEGIN
 90
        0
 91
        1
 62
     0
 92
       -2
340
0
 93
        0
 40
1.125
309
GRIDFORMAT_END
 95
       16
302
GRIDFORMAT
  1
GRIDFORMAT_BEGIN
 90
        0
 91
        1
 62
     0
 92
       -2
340
0
 93
        0
 40
1.125
309
GRIDFORMAT_END
 95
       32
302
GRIDFORMAT
  1
GRIDFORMAT_BEGIN
 90
        0
 91
        1
 62
     0
 92
       -2
340
0
 93
        0
 40
1.125
309
GRIDFORMAT_END
309
TABLEFORMAT_END
  1
CELLSTYLE_BEGIN
 90
        1
 91
        1
300
_TITLE
309
CELLSTYLE_END
300
CELLSTYLE
  1
TABLEFORMAT_BEGIN
 90
        5
170
     1
 91
        0
 92
        0
 62
   257
 93
        1
300
CONTENTFORMAT
  1
CONTENTFORMAT_BEGIN
 90
        0
 91
        0
 92
      512
 93
        0
300

 40
0.0
140
1.0
 94
        5
 62
     0
340
11
144
4.5
309
CONTENTFORMAT_END
171
     1
301
MARGIN
  1
CELLMARGIN_BEGIN
 40
1.5
 40
1.5
 40
1.5
 40
1.5
 40
4.5
 40
4.5
309
CELLMARGIN_END
 94
        6
 95
        1
302
GRIDFORMAT
  1
GRIDFORMAT_BEGIN
 90
        0
 91
        1
 62
     0
 92
       -2
340
0
 93
        0
 40
1.125
309
GRIDFORMAT_END
 95
        2
302
GRIDFORMAT
  1
GRIDFORMAT_BEGIN
 90
        0
 91
        1
 62
     0
 92
       -2
340
0
 93
        0
 40
1.125
309
GRIDFORMAT_END
 95
        4
302
GRIDFORMAT
  1
GRIDFORMAT_BEGIN
 90
        0
 91
        1
 62
     0
 92
       -2
340
0
 93
        0
 40
1.125
309
GRIDFORMAT_END
 95
        8
302
GRIDFORMAT
  1
GRIDFORMAT_BEGIN
 90
        0
 91
        1
 62
     0
 92
       -2
340
0
 93
        0
 40
1.125
309
GRIDFORMAT_END
 95
       16
302
GRIDFORMAT
  1
GRIDFORMAT_BEGIN
 90
        0
 91
        1
 62
     0
 92
       -2
340
0
 93
        0
 40
1.125
309
GRIDFORMAT_END
 95
       32
302
GRIDFORMAT
  1
GRIDFORMAT_BEGIN
 90
        0
 91
        1
 62
     0
 92
       -2
340
0
 93
        0
 40
1.125
309
GRIDFORMAT_END
309
TABLEFORMAT_END
  1
CELLSTYLE_BEGIN
 90
        2
 91
        1
300
_HEADER
309
CELLSTYLE_END
300
CELLSTYLE
  1
TABLEFORMAT_BEGIN
 90
        5
170
     1
 91
        0
 92
        0
 62
   257
 93
        1
300
CONTENTFORMAT
  1
CONTENTFORMAT_BEGIN
 90
        0
 91
        0
 92
      512
 93
        0
300

 40
0.0
140
1.0
 94
        2
 62
     0
340
11
144
4.5
309
CONTENTFORMAT_END
171
     1
301
MARGIN
  1
CELLMARGIN_BEGIN
 40
1.5
 40
1.5
 40
1.5
 40
1.5
 40
4.5
 40
4.5
309
CELLMARGIN_END
 94
        6
 95
        1
302
GRIDFORMAT
  1
GRIDFORMAT_BEGIN
 90
        0
 91
        1
 62
     0
 92
       -2
340
0
 93
        0
 40
1.125
309
GRIDFORMAT_END
 95
        2
302
GRIDFORMAT
  1
GRIDFORMAT_BEGIN
 90
        0
 91
        1
 62
     0
 92
       -2
340
0
 93
        0
 40
1.125
309
GRIDFORMAT_END
 95
        4
302
GRIDFORMAT
  1
GRIDFORMAT_BEGIN
 90
        0
 91
        1
 62
     0
 92
       -2
340
0
 93
        0
 40
1.125
309
GRIDFORMAT_END
 95
        8
302
GRIDFORMAT
  1
GRIDFORMAT_BEGIN
 90
        0
 91
        1
 62
     0
 92
       -2
340
0
 93
        0
 40
1.125
309
GRIDFORMAT_END
 95
       16
302
GRIDFORMAT
  1
GRIDFORMAT_BEGIN
 90
        0
 91
        1
 62
     0
 92
       -2
340
0
 93
        0
 40
1.125
309
GRIDFORMAT_END
 95
       32
302
GRIDFORMAT
  1
GRIDFORMAT_BEGIN
 90
        0
 91
        1
 62
     0
 92
       -2
340
0
 93
        0
 40
1.125
309
GRIDFORMAT_END
309
TABLEFORMAT_END
  1
CELLSTYLE_BEGIN
 90
        3
 91
        2
300
_DATA
309
CELLSTYLE_END
  0
XRECORD
  5
75D
102
{ACAD_REACTORS
330
725
102
}
330
725
100
AcDbXrecord
280
     1
102
ACAD_ROUNDTRIP_PRE2007_TABLESTYLE
 90
      512
 91
        0
  1

 92
      512
 93
        0
  2

 94
      512
 95
        0
  3

  0
XRECORD
  5
732
102
{ACAD_REACTORS
330
731
102
}
330
731
100
AcDbXrecord
280
     1
102
RTVSPost2010Prop28
280
     1
102
RTVSPost2010PropOp28
 70
     1
102
RTVSPost2010Prop29
280
     1
102
RTVSPost2010PropOp29
 70
     1
102
RTVSPost2010Prop30
280
     0
102
RTVSPost2010PropOp30
 70
     1
102
RTVSPost2010Prop31
280
     0
102
RTVSPost2010PropOp31
 70
     1
102
RTVSPost2010Prop32
280
     0
102
RTVSPost2010PropOp32
 70
     1
102
RTVSPost2010Prop33
280
     0
102
RTVSPost2010PropOp33
 70
     1
102
RTVSPost2010Prop34
280
     0
102
RTVSPost2010PropOp34
 70
     1
102
RTVSPost2010Prop35
280
     0
102
RTVSPost2010PropOp35
 70
     1
102
RTVSPost2010Prop36
280
     0
102
RTVSPost2010PropOp36
 70
     1
102
RTVSPost2010Prop37
 90
       50
102
RTVSPost2010PropOp37
 70
     1
102
RTVSPost2010Prop38
140
0.0
102
RTVSPost2010PropOp38
 70
     1
102
RTVSPost2010Prop39
140
1.0
102
RTVSPost2010PropOp39
 70
     1
102
RTVSPost2010Prop40
 90
        0
102
RTVSPost2010PropOp40
 70
     1
102
RTVSPost2010Prop41ColorIndex
 90
       18
102
RTVSPost2010Prop41ColorRGB
 90
        0
102
RTVSPost2010PropOp41
 70
     1
102
RTVSPost2010Prop42
 90
       50
102
RTVSPost2010PropOp42
 70
     1
102
RTVSPost2010Prop43
 90
        3
102
RTVSPost2010PropOp43
 70
     1
102
RTVSPost2010Prop44ColorIndex
 90
        5
102
RTVSPost2010Prop44ColorRGB
 90
      255
102
RTVSPost2010PropOp44
 70
     1
102
RTVSPost2010Prop45
280
     0
102
RTVSPost2010PropOp45
 70
     1
102
RTVSPost2010Prop46
 90
       50
102
RTVSPost2010PropOp46
 70
     1
102
RTVSPost2010Prop47
 90
       50
102
RTVSPost2010PropOp47
 70
     1
102
RTVSPost2010Prop48
 90
       50
102
RTVSPost2010PropOp48
 70
     1
102
RTVSPost2010Prop49
280
     0
102
RTVSPost2010PropOp49
 70
     1
102
RTVSPost2010Prop50
 90
       50
102
RTVSPost2010PropOp50
 70
     1
102
RTVSPost2010Prop51ColorIndex
 90
      256
102
RTVSPost2010Prop51ColorRGB
 90
-16777216
102
RTVSPost2010PropOp51
 70
     0
102
RTVSPost2010Prop52
140
1.0
102
RTVSPost2010PropOp52
 70
     0
102
RTVSPost2010Prop53
 90
        2
102
RTVSPost2010PropOp53
 70
     1
102
RTVSPost2010Prop54
  1
strokes_ogs.tif
102
RTVSPost2010PropOp54
 70
     1
102
RTVSPost2010Prop55
280
     0
102
RTVSPost2010PropOp55
 70
     1
102
RTVSPost2010Prop56
140
1.0
102
RTVSPost2010PropOp56
 70
     1
102
RTVSPost2010Prop57
140
1.0
102
RTVSPost2010PropOp57
 70
     1
102
RTVSPropertyOp0
 70
     1
102
RTVSPropertyOp1
 70
     1
102
RTVSPropertyOp2
 70
     1
102
RTVSPropertyOp3
 70
     1
102
RTVSPropertyOp4
 70
     1
102
RTVSPropertyOp5
 70
     1
102
RTVSPropertyOp6
 70
     1
102
RTVSPropertyOp7
 70
     1
102
RTVSPropertyOp8
 70
     1
102
RTVSPropertyOp9
 70
     1
102
RTVSPropertyOp10
 70
     1
102
RTVSPropertyOp11
 70
     1
102
RTVSPropertyOp12
 70
     1
102
RTVSPropertyOp13
 70
     1
102
RTVSPropertyOp14
 70
     1
102
RTVSPropertyOp15
 70
     1
102
RTVSPropertyOp16
 70
     1
102
RTVSPropertyOp17
 70
     1
102
RTVSPropertyOp18
 70
     1
102
RTVSPropertyOp19
 70
     1
102
RTVSPropertyOp20
 70
     1
102
RTVSPropertyOp21
 70
     1
102
RTVSPropertyOp22
 70
     1
102
RTVSPropertyOp23
 70
     1
102
RTVSPropertyOp24
 70
     1
102
RTVSPropertyOp25
 70
     1
102
RTVSPropertyOp26
 70
     1
102
RTVSPropertyOp27
 70
     1
102
RTVSPropertyOp28
 70
     1
102
RTVSPropertyOp29
 70
     1
102
RTVSPropertyOp30
 70
     1
102
RTVSPropertyOp31
 70
     1
102
RTVSPropertyOp32
 70
     1
102
RTVSPropertyOp33
 70
     1
102
RTVSPropertyOp34
 70
     1
102
RTVSPropertyOp35
 70
     1
102
RTVSPropertyOp36
 70
     1
102
RTVSPropertyOp37
 70
     1
102
RTVSPropertyOp38
 70
     1
102
RTVSPropertyOp39
 70
     1
102
RTVSPropertyOp40
 70
     1
102
RTVSPropertyOp41
 70
     1
102
RTVSPropertyOp42
 70
     1
102
RTVSPropertyOp43
 70
     1
102
RTVSPropertyOp44
 70
     1
102
RTVSPropertyOp45
 70
     1
102
RTVSPropertyOp46
 70
     1
102
RTVSPropertyOp47
 70
     1
102
RTVSPropertyOp48
 70
     1
102
RTVSPropertyOp49
 70
     1
102
RTVSPropertyOp50
 70
     1
102
RTVSPropertyOp51
 70
     0
102
RTVSPropertyOp52
 70
     0
102
RTVSPropertyOp53
 70
     1
102
RTVSPropertyOp54
 70
     1
102
RTVSPropertyOp55
 70
     1
102
RTVSPropertyOp56
 70
     1
102
RTVSPropertyOp57
 70
     1
102
RTVSPropertyOp58
 70
     1
102
RTVSPropertyOp59
 70
     1
102
RTVSPropertyOp60
 70
     1
102
RTVSPropertyOp61
 70
     1
102
RTVSPropertyOp62
 70
     1
  0
XRECORD
  5
738
102
{ACAD_REACTORS
330
737
102
}
330
737
100
AcDbXrecord
280
     1
102
RTVSPost2010Prop28
280
     0
102
RTVSPost2010PropOp28
 70
     1
102
RTVSPost2010Prop29
280
     1
102
RTVSPost2010PropOp29
 70
     1
102
RTVSPost2010Prop30
280
     1
102
RTVSPost2010PropOp30
 70
     1
102
RTVSPost2010Prop31
280
     0
102
RTVSPost2010PropOp31
 70
     1
102
RTVSPost2010Prop32
280
     0
102
RTVSPost2010PropOp32
 70
     1
102
RTVSPost2010Prop33
280
     0
102
RTVSPost2010PropOp33
 70
     1
102
RTVSPost2010Prop34
280
     0
102
RTVSPost2010PropOp34
 70
     1
102
RTVSPost2010Prop35
280
     0
102
RTVSPost2010PropOp35
 70
     1
102
RTVSPost2010Prop36
280
     0
102
RTVSPost2010PropOp36
 70
     1
102
RTVSPost2010Prop37
 90
       50
102
RTVSPost2010PropOp37
 70
     1
102
RTVSPost2010Prop38
140
0.0
102
RTVSPost2010PropOp38
 70
     1
102
RTVSPost2010Prop39
140
1.0
102
RTVSPost2010PropOp39
 70
     1
102
RTVSPost2010Prop40
 90
        0
102
RTVSPost2010PropOp40
 70
     1
102
RTVSPost2010Prop41ColorIndex
 90
       18
102
RTVSPost2010Prop41ColorRGB
 90
        0
102
RTVSPost2010PropOp41
 70
     1
102
RTVSPost2010Prop42
 90
       50
102
RTVSPost2010PropOp42
 70
     1
102
RTVSPost2010Prop43
 90
        3
102
RTVSPost2010PropOp43
 70
     1
102
RTVSPost2010Prop44ColorIndex
 90
        5
102
RTVSPost2010Prop44ColorRGB
 90
      255
102
RTVSPost2010PropOp44
 70
     1
102
RTVSPost2010Prop45
280
     0
102
RTVSPost2010PropOp45
 70
     1
102
RTVSPost2010Prop46
 90
       50
102
RTVSPost2010PropOp46
 70
     1
102
RTVSPost2010Prop47
 90
       50
102
RTVSPost2010PropOp47
 70
     1
102
RTVSPost2010Prop48
 90
       50
102
RTVSPost2010PropOp48
 70
     1
102
RTVSPost2010Prop49
280
     0
102
RTVSPost2010PropOp49
 70
     1
102
RTVSPost2010Prop50
 90
       50
102
RTVSPost2010PropOp50
 70
     1
102
RTVSPost2010Prop51ColorIndex
 90
      256
102
RTVSPost2010Prop51ColorRGB
 90
-16777216
102
RTVSPost2010PropOp51
 70
     0
102
RTVSPost2010Prop52
140
1.0
102
RTVSPost2010PropOp52
 70
     0
102
RTVSPost2010Prop53
 90
        2
102
RTVSPost2010PropOp53
 70
     1
102
RTVSPost2010Prop54
  1
strokes_ogs.tif
102
RTVSPost2010PropOp54
 70
     1
102
RTVSPost2010Prop55
280
     0
102
RTVSPost2010PropOp55
 70
     1
102
RTVSPost2010Prop56
140
1.0
102
RTVSPost2010PropOp56
 70
     1
102
RTVSPost2010Prop57
140
1.0
102
RTVSPost2010PropOp57
 70
     1
102
RTVSPropertyOp0
 70
     1
102
RTVSPropertyOp1
 70
     1
102
RTVSPropertyOp2
 70
     1
102
RTVSPropertyOp3
 70
     1
102
RTVSPropertyOp4
 70
     1
102
RTVSPropertyOp5
 70
     1
102
RTVSPropertyOp6
 70
     1
102
RTVSPropertyOp7
 70
     1
102
RTVSPropertyOp8
 70
     1
102
RTVSPropertyOp9
 70
     1
102
RTVSPropertyOp10
 70
     1
102
RTVSPropertyOp11
 70
     1
102
RTVSPropertyOp12
 70
     1
102
RTVSPropertyOp13
 70
     1
102
RTVSPropertyOp14
 70
     1
102
RTVSPropertyOp15
 70
     1
102
RTVSPropertyOp16
 70
     1
102
RTVSPropertyOp17
 70
     1
102
RTVSPropertyOp18
 70
     1
102
RTVSPropertyOp19
 70
     1
102
RTVSPropertyOp20
 70
     1
102
RTVSPropertyOp21
 70
     1
102
RTVSPropertyOp22
 70
     1
102
RTVSPropertyOp23
 70
     1
102
RTVSPropertyOp24
 70
     1
102
RTVSPropertyOp25
 70
     1
102
RTVSPropertyOp26
 70
     1
102
RTVSPropertyOp27
 70
     1
102
RTVSPropertyOp28
 70
     1
102
RTVSPropertyOp29
 70
     1
102
RTVSPropertyOp30
 70
     1
102
RTVSPropertyOp31
 70
     1
102
RTVSPropertyOp32
 70
     1
102
RTVSPropertyOp33
 70
     1
102
RTVSPropertyOp34
 70
     1
102
RTVSPropertyOp35
 70
     1
102
RTVSPropertyOp36
 70
     1
102
RTVSPropertyOp37
 70
     1
102
RTVSPropertyOp38
 70
     1
102
RTVSPropertyOp39
 70
     1
102
RTVSPropertyOp40
 70
     1
102
RTVSPropertyOp41
 70
     1
102
RTVSPropertyOp42
 70
     1
102
RTVSPropertyOp43
 70
     1
102
RTVSPropertyOp44
 70
     1
102
RTVSPropertyOp45
 70
     1
102
RTVSPropertyOp46
 70
     1
102
RTVSPropertyOp47
 70
     1
102
RTVSPropertyOp48
 70
     1
102
RTVSPropertyOp49
 70
     1
102
RTVSPropertyOp50
 70
     1
102
RTVSPropertyOp51
 70
     0
102
RTVSPropertyOp52
 70
     0
102
RTVSPropertyOp53
 70
     1
102
RTVSPropertyOp54
 70
     1
102
RTVSPropertyOp55
 70
     1
102
RTVSPropertyOp56
 70
     1
102
RTVSPropertyOp57
 70
     1
102
RTVSPropertyOp58
 70
     1
102
RTVSPropertyOp59
 70
     1
102
RTVSPropertyOp60
 70
     1
102
RTVSPropertyOp61
 70
     1
102
RTVSPropertyOp62
 70
     1
  0
XRECORD
  5
740
102
{ACAD_REACTORS
330
73F
102
}
330
73F
100
AcDbXrecord
280
     1
102
RTVSPost2010Prop28
280
     0
102
RTVSPost2010PropOp28
 70
     1
102
RTVSPost2010Prop29
280
     1
102
RTVSPost2010PropOp29
 70
     1
102
RTVSPost2010Prop30
280
     1
102
RTVSPost2010PropOp30
 70
     1
102
RTVSPost2010Prop31
280
     0
102
RTVSPost2010PropOp31
 70
     1
102
RTVSPost2010Prop32
280
     0
102
RTVSPost2010PropOp32
 70
     1
102
RTVSPost2010Prop33
280
     0
102
RTVSPost2010PropOp33
 70
     1
102
RTVSPost2010Prop34
280
     0
102
RTVSPost2010PropOp34
 70
     1
102
RTVSPost2010Prop35
280
     0
102
RTVSPost2010PropOp35
 70
     1
102
RTVSPost2010Prop36
280
     0
102
RTVSPost2010PropOp36
 70
     1
102
RTVSPost2010Prop37
 90
       50
102
RTVSPost2010PropOp37
 70
     1
102
RTVSPost2010Prop38
140
0.0
102
RTVSPost2010PropOp38
 70
     1
102
RTVSPost2010Prop39
140
1.0
102
RTVSPost2010PropOp39
 70
     1
102
RTVSPost2010Prop40
 90
        0
102
RTVSPost2010PropOp40
 70
     1
102
RTVSPost2010Prop41ColorIndex
 90
       18
102
RTVSPost2010Prop41ColorRGB
 90
        0
102
RTVSPost2010PropOp41
 70
     1
102
RTVSPost2010Prop42
 90
       50
102
RTVSPost2010PropOp42
 70
     1
102
RTVSPost2010Prop43
 90
        3
102
RTVSPost2010PropOp43
 70
     1
102
RTVSPost2010Prop44ColorIndex
 90
        5
102
RTVSPost2010Prop44ColorRGB
 90
      255
102
RTVSPost2010PropOp44
 70
     1
102
RTVSPost2010Prop45
280
     0
102
RTVSPost2010PropOp45
 70
     1
102
RTVSPost2010Prop46
 90
       50
102
RTVSPost2010PropOp46
 70
     1
102
RTVSPost2010Prop47
 90
       50
102
RTVSPost2010PropOp47
 70
     1
102
RTVSPost2010Prop48
 90
       50
102
RTVSPost2010PropOp48
 70
     1
102
RTVSPost2010Prop49
280
     0
102
RTVSPost2010PropOp49
 70
     1
102
RTVSPost2010Prop50
 90
       50
102
RTVSPost2010PropOp50
 70
     1
102
RTVSPost2010Prop51ColorIndex
 90
      256
102
RTVSPost2010Prop51ColorRGB
 90
-16777216
102
RTVSPost2010PropOp51
 70
     0
102
RTVSPost2010Prop52
140
1.0
102
RTVSPost2010PropOp52
 70
     0
102
RTVSPost2010Prop53
 90
        2
102
RTVSPost2010PropOp53
 70
     1
102
RTVSPost2010Prop54
  1
strokes_ogs.tif
102
RTVSPost2010PropOp54
 70
     1
102
RTVSPost2010Prop55
280
     0
102
RTVSPost2010PropOp55
 70
     1
102
RTVSPost2010Prop56
140
1.0
102
RTVSPost2010PropOp56
 70
     1
102
RTVSPost2010Prop57
140
1.0
102
RTVSPost2010PropOp57
 70
     1
102
RTVSPropertyOp0
 70
     1
102
RTVSPropertyOp1
 70
     1
102
RTVSPropertyOp2
 70
     1
102
RTVSPropertyOp3
 70
     1
102
RTVSPropertyOp4
 70
     1
102
RTVSPropertyOp5
 70
     1
102
RTVSPropertyOp6
 70
     1
102
RTVSPropertyOp7
 70
     1
102
RTVSPropertyOp8
 70
     1
102
RTVSPropertyOp9
 70
     1
102
RTVSPropertyOp10
 70
     1
102
RTVSPropertyOp11
 70
     1
102
RTVSPropertyOp12
 70
     1
102
RTVSPropertyOp13
 70
     1
102
RTVSPropertyOp14
 70
     1
102
RTVSPropertyOp15
 70
     1
102
RTVSPropertyOp16
 70
     1
102
RTVSPropertyOp17
 70
     1
102
RTVSPropertyOp18
 70
     1
102
RTVSPropertyOp19
 70
     1
102
RTVSPropertyOp20
 70
     1
102
RTVSPropertyOp21
 70
     1
102
RTVSPropertyOp22
 70
     1
102
RTVSPropertyOp23
 70
     1
102
RTVSPropertyOp24
 70
     1
102
RTVSPropertyOp25
 70
     1
102
RTVSPropertyOp26
 70
     1
102
RTVSPropertyOp27
 70
     1
102
RTVSPropertyOp28
 70
     1
102
RTVSPropertyOp29
 70
     1
102
RTVSPropertyOp30
 70
     1
102
RTVSPropertyOp31
 70
     1
102
RTVSPropertyOp32
 70
     1
102
RTVSPropertyOp33
 70
     1
102
RTVSPropertyOp34
 70
     1
102
RTVSPropertyOp35
 70
     1
102
RTVSPropertyOp36
 70
     1
102
RTVSPropertyOp37
 70
     1
102
RTVSPropertyOp38
 70
     1
102
RTVSPropertyOp39
 70
     1
102
RTVSPropertyOp40
 70
     1
102
RTVSPropertyOp41
 70
     1
102
RTVSPropertyOp42
 70
     1
102
RTVSPropertyOp43
 70
     1
102
RTVSPropertyOp44
 70
     1
102
RTVSPropertyOp45
 70
     1
102
RTVSPropertyOp46
 70
     1
102
RTVSPropertyOp47
 70
     1
102
RTVSPropertyOp48
 70
     1
102
RTVSPropertyOp49
 70
     1
102
RTVSPropertyOp50
 70
     1
102
RTVSPropertyOp51
 70
     0
102
RTVSPropertyOp52
 70
     0
102
RTVSPropertyOp53
 70
     1
102
RTVSPropertyOp54
 70
     1
102
RTVSPropertyOp55
 70
     1
102
RTVSPropertyOp56
 70
     1
102
RTVSPropertyOp57
 70
     1
102
RTVSPropertyOp58
 70
     1
102
RTVSPropertyOp59
 70
     1
102
RTVSPropertyOp60
 70
     1
102
RTVSPropertyOp61
 70
     1
102
RTVSPropertyOp62
 70
     1
  0
XRECORD
  5
748
102
{ACAD_REACTORS
330
747
102
}
330
747
100
AcDbXrecord
280
     1
102
RTVSPost2010Prop28
280
     0
102
RTVSPost2010PropOp28
 70
     1
102
RTVSPost2010Prop29
280
     1
102
RTVSPost2010PropOp29
 70
     1
102
RTVSPost2010Prop30
280
     1
102
RTVSPost2010PropOp30
 70
     1
102
RTVSPost2010Prop31
280
     0
102
RTVSPost2010PropOp31
 70
     1
102
RTVSPost2010Prop32
280
     0
102
RTVSPost2010PropOp32
 70
     1
102
RTVSPost2010Prop33
280
     0
102
RTVSPost2010PropOp33
 70
     1
102
RTVSPost2010Prop34
280
     0
102
RTVSPost2010PropOp34
 70
     1
102
RTVSPost2010Prop35
280
     0
102
RTVSPost2010PropOp35
 70
     1
102
RTVSPost2010Prop36
280
     0
102
RTVSPost2010PropOp36
 70
     1
102
RTVSPost2010Prop37
 90
       50
102
RTVSPost2010PropOp37
 70
     1
102
RTVSPost2010Prop38
140
0.0
102
RTVSPost2010PropOp38
 70
     1
102
RTVSPost2010Prop39
140
1.0
102
RTVSPost2010PropOp39
 70
     1
102
RTVSPost2010Prop40
 90
        0
102
RTVSPost2010PropOp40
 70
     1
102
RTVSPost2010Prop41ColorIndex
 90
       18
102
RTVSPost2010Prop41ColorRGB
 90
        0
102
RTVSPost2010PropOp41
 70
     1
102
RTVSPost2010Prop42
 90
       50
102
RTVSPost2010PropOp42
 70
     1
102
RTVSPost2010Prop43
 90
        3
102
RTVSPost2010PropOp43
 70
     1
102
RTVSPost2010Prop44ColorIndex
 90
        5
102
RTVSPost2010Prop44ColorRGB
 90
      255
102
RTVSPost2010PropOp44
 70
     1
102
RTVSPost2010Prop45
280
     0
102
RTVSPost2010PropOp45
 70
     1
102
RTVSPost2010Prop46
 90
       50
102
RTVSPost2010PropOp46
 70
     1
102
RTVSPost2010Prop47
 90
       50
102
RTVSPost2010PropOp47
 70
     1
102
RTVSPost2010Prop48
 90
       50
102
RTVSPost2010PropOp48
 70
     1
102
RTVSPost2010Prop49
280
     0
102
RTVSPost2010PropOp49
 70
     1
102
RTVSPost2010Prop50
 90
       50
102
RTVSPost2010PropOp50
 70
     1
102
RTVSPost2010Prop51ColorIndex
 90
      256
102
RTVSPost2010Prop51ColorRGB
 90
-16777216
102
RTVSPost2010PropOp51
 70
     0
102
RTVSPost2010Prop52
140
1.0
102
RTVSPost2010PropOp52
 70
     0
102
RTVSPost2010Prop53
 90
        2
102
RTVSPost2010PropOp53
 70
     1
102
RTVSPost2010Prop54
  1
strokes_ogs.tif
102
RTVSPost2010PropOp54
 70
     1
102
RTVSPost2010Prop55
280
     0
102
RTVSPost2010PropOp55
 70
     1
102
RTVSPost2010Prop56
140
1.0
102
RTVSPost2010PropOp56
 70
     1
102
RTVSPost2010Prop57
140
1.0
102
RTVSPost2010PropOp57
 70
     1
102
RTVSPropertyOp0
 70
     1
102
RTVSPropertyOp1
 70
     1
102
RTVSPropertyOp2
 70
     1
102
RTVSPropertyOp3
 70
     1
102
RTVSPropertyOp4
 70
     1
102
RTVSPropertyOp5
 70
     1
102
RTVSPropertyOp6
 70
     1
102
RTVSPropertyOp7
 70
     1
102
RTVSPropertyOp8
 70
     1
102
RTVSPropertyOp9
 70
     1
102
RTVSPropertyOp10
 70
     1
102
RTVSPropertyOp11
 70
     1
102
RTVSPropertyOp12
 70
     1
102
RTVSPropertyOp13
 70
     1
102
RTVSPropertyOp14
 70
     1
102
RTVSPropertyOp15
 70
     1
102
RTVSPropertyOp16
 70
     1
102
RTVSPropertyOp17
 70
     1
102
RTVSPropertyOp18
 70
     1
102
RTVSPropertyOp19
 70
     1
102
RTVSPropertyOp20
 70
     1
102
RTVSPropertyOp21
 70
     1
102
RTVSPropertyOp22
 70
     1
102
RTVSPropertyOp23
 70
     1
102
RTVSPropertyOp24
 70
     1
102
RTVSPropertyOp25
 70
     1
102
RTVSPropertyOp26
 70
     1
102
RTVSPropertyOp27
 70
     1
102
RTVSPropertyOp28
 70
     1
102
RTVSPropertyOp29
 70
     1
102
RTVSPropertyOp30
 70
     1
102
RTVSPropertyOp31
 70
     1
102
RTVSPropertyOp32
 70
     1
102
RTVSPropertyOp33
 70
     1
102
RTVSPropertyOp34
 70
     1
102
RTVSPropertyOp35
 70
     1
102
RTVSPropertyOp36
 70
     1
102
RTVSPropertyOp37
 70
     1
102
RTVSPropertyOp38
 70
     1
102
RTVSPropertyOp39
 70
     1
102
RTVSPropertyOp40
 70
     1
102
RTVSPropertyOp41
 70
     1
102
RTVSPropertyOp42
 70
     1
102
RTVSPropertyOp43
 70
     1
102
RTVSPropertyOp44
 70
     1
102
RTVSPropertyOp45
 70
     1
102
RTVSPropertyOp46
 70
     1
102
RTVSPropertyOp47
 70
     1
102
RTVSPropertyOp48
 70
     1
102
RTVSPropertyOp49
 70
     1
102
RTVSPropertyOp50
 70
     1
102
RTVSPropertyOp51
 70
     0
102
RTVSPropertyOp52
 70
     0
102
RTVSPropertyOp53
 70
     1
102
RTVSPropertyOp54
 70
     1
102
RTVSPropertyOp55
 70
     1
102
RTVSPropertyOp56
 70
     1
102
RTVSPropertyOp57
 70
     1
102
RTVSPropertyOp58
 70
     1
102
RTVSPropertyOp59
 70
     1
102
RTVSPropertyOp60
 70
     1
102
RTVSPropertyOp61
 70
     1
102
RTVSPropertyOp62
 70
     1
  0
XRECORD
  5
73C
102
{ACAD_REACTORS
330
73B
102
}
330
73B
100
AcDbXrecord
280
     1
102
RTVSPost2010Prop28
280
     0
102
RTVSPost2010PropOp28
 70
     1
102
RTVSPost2010Prop29
280
     1
102
RTVSPost2010PropOp29
 70
     1
102
RTVSPost2010Prop30
280
     1
102
RTVSPost2010PropOp30
 70
     1
102
RTVSPost2010Prop31
280
     0
102
RTVSPost2010PropOp31
 70
     1
102
RTVSPost2010Prop32
280
     0
102
RTVSPost2010PropOp32
 70
     1
102
RTVSPost2010Prop33
280
     0
102
RTVSPost2010PropOp33
 70
     1
102
RTVSPost2010Prop34
280
     0
102
RTVSPost2010PropOp34
 70
     1
102
RTVSPost2010Prop35
280
     0
102
RTVSPost2010PropOp35
 70
     1
102
RTVSPost2010Prop36
280
     0
102
RTVSPost2010PropOp36
 70
     1
102
RTVSPost2010Prop37
 90
       50
102
RTVSPost2010PropOp37
 70
     1
102
RTVSPost2010Prop38
140
0.0
102
RTVSPost2010PropOp38
 70
     1
102
RTVSPost2010Prop39
140
1.0
102
RTVSPost2010PropOp39
 70
     1
102
RTVSPost2010Prop40
 90
        0
102
RTVSPost2010PropOp40
 70
     1
102
RTVSPost2010Prop41ColorIndex
 90
       18
102
RTVSPost2010Prop41ColorRGB
 90
        0
102
RTVSPost2010PropOp41
 70
     1
102
RTVSPost2010Prop42
 90
       50
102
RTVSPost2010PropOp42
 70
     1
102
RTVSPost2010Prop43
 90
        3
102
RTVSPost2010PropOp43
 70
     1
102
RTVSPost2010Prop44ColorIndex
 90
        5
102
RTVSPost2010Prop44ColorRGB
 90
      255
102
RTVSPost2010PropOp44
 70
     1
102
RTVSPost2010Prop45
280
     0
102
RTVSPost2010PropOp45
 70
     1
102
RTVSPost2010Prop46
 90
       50
102
RTVSPost2010PropOp46
 70
     1
102
RTVSPost2010Prop47
 90
       50
102
RTVSPost2010PropOp47
 70
     1
102
RTVSPost2010Prop48
 90
       50
102
RTVSPost2010PropOp48
 70
     1
102
RTVSPost2010Prop49
280
     0
102
RTVSPost2010PropOp49
 70
     1
102
RTVSPost2010Prop50
 90
       50
102
RTVSPost2010PropOp50
 70
     1
102
RTVSPost2010Prop51ColorIndex
 90
      256
102
RTVSPost2010Prop51ColorRGB
 90
-16777216
102
RTVSPost2010PropOp51
 70
     0
102
RTVSPost2010Prop52
140
1.0
102
RTVSPost2010PropOp52
 70
     0
102
RTVSPost2010Prop53
 90
        2
102
RTVSPost2010PropOp53
 70
     1
102
RTVSPost2010Prop54
  1
strokes_ogs.tif
102
RTVSPost2010PropOp54
 70
     1
102
RTVSPost2010Prop55
280
     0
102
RTVSPost2010PropOp55
 70
     1
102
RTVSPost2010Prop56
140
1.0
102
RTVSPost2010PropOp56
 70
     1
102
RTVSPost2010Prop57
140
1.0
102
RTVSPost2010PropOp57
 70
     1
102
RTVSPropertyOp0
 70
     1
102
RTVSPropertyOp1
 70
     1
102
RTVSPropertyOp2
 70
     1
102
RTVSPropertyOp3
 70
     1
102
RTVSPropertyOp4
 70
     1
102
RTVSPropertyOp5
 70
     1
102
RTVSPropertyOp6
 70
     1
102
RTVSPropertyOp7
 70
     1
102
RTVSPropertyOp8
 70
     1
102
RTVSPropertyOp9
 70
     1
102
RTVSPropertyOp10
 70
     1
102
RTVSPropertyOp11
 70
     1
102
RTVSPropertyOp12
 70
     1
102
RTVSPropertyOp13
 70
     1
102
RTVSPropertyOp14
 70
     1
102
RTVSPropertyOp15
 70
     1
102
RTVSPropertyOp16
 70
     1
102
RTVSPropertyOp17
 70
     1
102
RTVSPropertyOp18
 70
     1
102
RTVSPropertyOp19
 70
     1
102
RTVSPropertyOp20
 70
     1
102
RTVSPropertyOp21
 70
     1
102
RTVSPropertyOp22
 70
     1
102
RTVSPropertyOp23
 70
     1
102
RTVSPropertyOp24
 70
     1
102
RTVSPropertyOp25
 70
     1
102
RTVSPropertyOp26
 70
     1
102
RTVSPropertyOp27
 70
     1
102
RTVSPropertyOp28
 70
     1
102
RTVSPropertyOp29
 70
     1
102
RTVSPropertyOp30
 70
     1
102
RTVSPropertyOp31
 70
     1
102
RTVSPropertyOp32
 70
     1
102
RTVSPropertyOp33
 70
     1
102
RTVSPropertyOp34
 70
     1
102
RTVSPropertyOp35
 70
     1
102
RTVSPropertyOp36
 70
     1
102
RTVSPropertyOp37
 70
     1
102
RTVSPropertyOp38
 70
     1
102
RTVSPropertyOp39
 70
     1
102
RTVSPropertyOp40
 70
     1
102
RTVSPropertyOp41
 70
     1
102
RTVSPropertyOp42
 70
     1
102
RTVSPropertyOp43
 70
     1
102
RTVSPropertyOp44
 70
     1
102
RTVSPropertyOp45
 70
     1
102
RTVSPropertyOp46
 70
     1
102
RTVSPropertyOp47
 70
     1
102
RTVSPropertyOp48
 70
     1
102
RTVSPropertyOp49
 70
     1
102
RTVSPropertyOp50
 70
     1
102
RTVSPropertyOp51
 70
     0
102
RTVSPropertyOp52
 70
     0
102
RTVSPropertyOp53
 70
     1
102
RTVSPropertyOp54
 70
     1
102
RTVSPropertyOp55
 70
     1
102
RTVSPropertyOp56
 70
     1
102
RTVSPropertyOp57
 70
     1
102
RTVSPropertyOp58
 70
     1
102
RTVSPropertyOp59
 70
     1
102
RTVSPropertyOp60
 70
     1
102
RTVSPropertyOp61
 70
     1
102
RTVSPropertyOp62
 70
     1
  0
XRECORD
  5
73E
102
{ACAD_REACTORS
330
73D
102
}
330
73D
100
AcDbXrecord
280
     1
102
RTVSPost2010Prop28
280
     0
102
RTVSPost2010PropOp28
 70
     1
102
RTVSPost2010Prop29
280
     1
102
RTVSPost2010PropOp29
 70
     1
102
RTVSPost2010Prop30
280
     1
102
RTVSPost2010PropOp30
 70
     1
102
RTVSPost2010Prop31
280
     0
102
RTVSPost2010PropOp31
 70
     1
102
RTVSPost2010Prop32
280
     0
102
RTVSPost2010PropOp32
 70
     1
102
RTVSPost2010Prop33
280
     0
102
RTVSPost2010PropOp33
 70
     1
102
RTVSPost2010Prop34
280
     0
102
RTVSPost2010PropOp34
 70
     1
102
RTVSPost2010Prop35
280
     0
102
RTVSPost2010PropOp35
 70
     1
102
RTVSPost2010Prop36
280
     0
102
RTVSPost2010PropOp36
 70
     1
102
RTVSPost2010Prop37
 90
       50
102
RTVSPost2010PropOp37
 70
     1
102
RTVSPost2010Prop38
140
0.0
102
RTVSPost2010PropOp38
 70
     1
102
RTVSPost2010Prop39
140
1.0
102
RTVSPost2010PropOp39
 70
     1
102
RTVSPost2010Prop40
 90
        0
102
RTVSPost2010PropOp40
 70
     1
102
RTVSPost2010Prop41ColorIndex
 90
       18
102
RTVSPost2010Prop41ColorRGB
 90
        0
102
RTVSPost2010PropOp41
 70
     1
102
RTVSPost2010Prop42
 90
       50
102
RTVSPost2010PropOp42
 70
     1
102
RTVSPost2010Prop43
 90
        3
102
RTVSPost2010PropOp43
 70
     1
102
RTVSPost2010Prop44ColorIndex
 90
        5
102
RTVSPost2010Prop44ColorRGB
 90
      255
102
RTVSPost2010PropOp44
 70
     1
102
RTVSPost2010Prop45
280
     0
102
RTVSPost2010PropOp45
 70
     1
102
RTVSPost2010Prop46
 90
       50
102
RTVSPost2010PropOp46
 70
     1
102
RTVSPost2010Prop47
 90
       50
102
RTVSPost2010PropOp47
 70
     1
102
RTVSPost2010Prop48
 90
       50
102
RTVSPost2010PropOp48
 70
     1
102
RTVSPost2010Prop49
280
     0
102
RTVSPost2010PropOp49
 70
     1
102
RTVSPost2010Prop50
 90
       50
102
RTVSPost2010PropOp50
 70
     1
102
RTVSPost2010Prop51ColorIndex
 90
      256
102
RTVSPost2010Prop51ColorRGB
 90
-16777216
102
RTVSPost2010PropOp51
 70
     0
102
RTVSPost2010Prop52
140
1.0
102
RTVSPost2010PropOp52
 70
     0
102
RTVSPost2010Prop53
 90
        2
102
RTVSPost2010PropOp53
 70
     1
102
RTVSPost2010Prop54
  1
strokes_ogs.tif
102
RTVSPost2010PropOp54
 70
     1
102
RTVSPost2010Prop55
280
     0
102
RTVSPost2010PropOp55
 70
     1
102
RTVSPost2010Prop56
140
1.0
102
RTVSPost2010PropOp56
 70
     1
102
RTVSPost2010Prop57
140
1.0
102
RTVSPost2010PropOp57
 70
     1
102
RTVSPropertyOp0
 70
     1
102
RTVSPropertyOp1
 70
     1
102
RTVSPropertyOp2
 70
     1
102
RTVSPropertyOp3
 70
     1
102
RTVSPropertyOp4
 70
     1
102
RTVSPropertyOp5
 70
     1
102
RTVSPropertyOp6
 70
     1
102
RTVSPropertyOp7
 70
     1
102
RTVSPropertyOp8
 70
     1
102
RTVSPropertyOp9
 70
     1
102
RTVSPropertyOp10
 70
     1
102
RTVSPropertyOp11
 70
     1
102
RTVSPropertyOp12
 70
     1
102
RTVSPropertyOp13
 70
     1
102
RTVSPropertyOp14
 70
     1
102
RTVSPropertyOp15
 70
     1
102
RTVSPropertyOp16
 70
     1
102
RTVSPropertyOp17
 70
     1
102
RTVSPropertyOp18
 70
     1
102
RTVSPropertyOp19
 70
     1
102
RTVSPropertyOp20
 70
     1
102
RTVSPropertyOp21
 70
     1
102
RTVSPropertyOp22
 70
     1
102
RTVSPropertyOp23
 70
     1
102
RTVSPropertyOp24
 70
     1
102
RTVSPropertyOp25
 70
     1
102
RTVSPropertyOp26
 70
     1
102
RTVSPropertyOp27
 70
     1
102
RTVSPropertyOp28
 70
     1
102
RTVSPropertyOp29
 70
     1
102
RTVSPropertyOp30
 70
     1
102
RTVSPropertyOp31
 70
     1
102
RTVSPropertyOp32
 70
     1
102
RTVSPropertyOp33
 70
     1
102
RTVSPropertyOp34
 70
     1
102
RTVSPropertyOp35
 70
     1
102
RTVSPropertyOp36
 70
     1
102
RTVSPropertyOp37
 70
     1
102
RTVSPropertyOp38
 70
     1
102
RTVSPropertyOp39
 70
     1
102
RTVSPropertyOp40
 70
     1
102
RTVSPropertyOp41
 70
     1
102
RTVSPropertyOp42
 70
     1
102
RTVSPropertyOp43
 70
     1
102
RTVSPropertyOp44
 70
     1
102
RTVSPropertyOp45
 70
     1
102
RTVSPropertyOp46
 70
     1
102
RTVSPropertyOp47
 70
     1
102
RTVSPropertyOp48
 70
     1
102
RTVSPropertyOp49
 70
     1
102
RTVSPropertyOp50
 70
     1
102
RTVSPropertyOp51
 70
     0
102
RTVSPropertyOp52
 70
     0
102
RTVSPropertyOp53
 70
     1
102
RTVSPropertyOp54
 70
     1
102
RTVSPropertyOp55
 70
     1
102
RTVSPropertyOp56
 70
     1
102
RTVSPropertyOp57
 70
     1
102
RTVSPropertyOp58
 70
     1
102
RTVSPropertyOp59
 70
     1
102
RTVSPropertyOp60
 70
     1
102
RTVSPropertyOp61
 70
     1
102
RTVSPropertyOp62
 70
     1
  0
XRECORD
  5
74E
102
{ACAD_REACTORS
330
74D
102
}
330
74D
100
AcDbXrecord
280
     1
102
RTVSPost2010Prop28
280
     0
102
RTVSPost2010PropOp28
 70
     1
102
RTVSPost2010Prop29
280
     1
102
RTVSPost2010PropOp29
 70
     1
102
RTVSPost2010Prop30
280
     1
102
RTVSPost2010PropOp30
 70
     1
102
RTVSPost2010Prop31
280
     0
102
RTVSPost2010PropOp31
 70
     1
102
RTVSPost2010Prop32
280
     0
102
RTVSPost2010PropOp32
 70
     1
102
RTVSPost2010Prop33
280
     0
102
RTVSPost2010PropOp33
 70
     1
102
RTVSPost2010Prop34
280
     0
102
RTVSPost2010PropOp34
 70
     1
102
RTVSPost2010Prop35
280
     0
102
RTVSPost2010PropOp35
 70
     1
102
RTVSPost2010Prop36
280
     0
102
RTVSPost2010PropOp36
 70
     1
102
RTVSPost2010Prop37
 90
       50
102
RTVSPost2010PropOp37
 70
     1
102
RTVSPost2010Prop38
140
0.0
102
RTVSPost2010PropOp38
 70
     1
102
RTVSPost2010Prop39
140
1.0
102
RTVSPost2010PropOp39
 70
     1
102
RTVSPost2010Prop40
 90
        0
102
RTVSPost2010PropOp40
 70
     1
102
RTVSPost2010Prop41ColorIndex
 90
       18
102
RTVSPost2010Prop41ColorRGB
 90
        0
102
RTVSPost2010PropOp41
 70
     1
102
RTVSPost2010Prop42
 90
       50
102
RTVSPost2010PropOp42
 70
     1
102
RTVSPost2010Prop43
 90
        3
102
RTVSPost2010PropOp43
 70
     1
102
RTVSPost2010Prop44ColorIndex
 90
        5
102
RTVSPost2010Prop44ColorRGB
 90
      255
102
RTVSPost2010PropOp44
 70
     1
102
RTVSPost2010Prop45
280
     0
102
RTVSPost2010PropOp45
 70
     1
102
RTVSPost2010Prop46
 90
       50
102
RTVSPost2010PropOp46
 70
     1
102
RTVSPost2010Prop47
 90
       50
102
RTVSPost2010PropOp47
 70
     1
102
RTVSPost2010Prop48
 90
       50
102
RTVSPost2010PropOp48
 70
     1
102
RTVSPost2010Prop49
280
     0
102
RTVSPost2010PropOp49
 70
     1
102
RTVSPost2010Prop50
 90
       50
102
RTVSPost2010PropOp50
 70
     1
102
RTVSPost2010Prop51ColorIndex
 90
      256
102
RTVSPost2010Prop51ColorRGB
 90
-16777216
102
RTVSPost2010PropOp51
 70
     0
102
RTVSPost2010Prop52
140
1.0
102
RTVSPost2010PropOp52
 70
     0
102
RTVSPost2010Prop53
 90
        2
102
RTVSPost2010PropOp53
 70
     1
102
RTVSPost2010Prop54
  1
strokes_ogs.tif
102
RTVSPost2010PropOp54
 70
     1
102
RTVSPost2010Prop55
280
     0
102
RTVSPost2010PropOp55
 70
     1
102
RTVSPost2010Prop56
140
1.0
102
RTVSPost2010PropOp56
 70
     1
102
RTVSPost2010Prop57
140
1.0
102
RTVSPost2010PropOp57
 70
     1
102
RTVSPropertyOp0
 70
     1
102
RTVSPropertyOp1
 70
     1
102
RTVSPropertyOp2
 70
     1
102
RTVSPropertyOp3
 70
     1
102
RTVSPropertyOp4
 70
     1
102
RTVSPropertyOp5
 70
     1
102
RTVSPropertyOp6
 70
     1
102
RTVSPropertyOp7
 70
     1
102
RTVSPropertyOp8
 70
     1
102
RTVSPropertyOp9
 70
     1
102
RTVSPropertyOp10
 70
     1
102
RTVSPropertyOp11
 70
     1
102
RTVSPropertyOp12
 70
     1
102
RTVSPropertyOp13
 70
     1
102
RTVSPropertyOp14
 70
     1
102
RTVSPropertyOp15
 70
     1
102
RTVSPropertyOp16
 70
     1
102
RTVSPropertyOp17
 70
     1
102
RTVSPropertyOp18
 70
     1
102
RTVSPropertyOp19
 70
     1
102
RTVSPropertyOp20
 70
     1
102
RTVSPropertyOp21
 70
     1
102
RTVSPropertyOp22
 70
     1
102
RTVSPropertyOp23
 70
     1
102
RTVSPropertyOp24
 70
     1
102
RTVSPropertyOp25
 70
     1
102
RTVSPropertyOp26
 70
     1
102
RTVSPropertyOp27
 70
     1
102
RTVSPropertyOp28
 70
     1
102
RTVSPropertyOp29
 70
     1
102
RTVSPropertyOp30
 70
     1
102
RTVSPropertyOp31
 70
     1
102
RTVSPropertyOp32
 70
     1
102
RTVSPropertyOp33
 70
     1
102
RTVSPropertyOp34
 70
     1
102
RTVSPropertyOp35
 70
     1
102
RTVSPropertyOp36
 70
     1
102
RTVSPropertyOp37
 70
     1
102
RTVSPropertyOp38
 70
     1
102
RTVSPropertyOp39
 70
     1
102
RTVSPropertyOp40
 70
     1
102
RTVSPropertyOp41
 70
     1
102
RTVSPropertyOp42
 70
     1
102
RTVSPropertyOp43
 70
     1
102
RTVSPropertyOp44
 70
     1
102
RTVSPropertyOp45
 70
     1
102
RTVSPropertyOp46
 70
     1
102
RTVSPropertyOp47
 70
     1
102
RTVSPropertyOp48
 70
     1
102
RTVSPropertyOp49
 70
     1
102
RTVSPropertyOp50
 70
     1
102
RTVSPropertyOp51
 70
     0
102
RTVSPropertyOp52
 70
     0
102
RTVSPropertyOp53
 70
     1
102
RTVSPropertyOp54
 70
     1
102
RTVSPropertyOp55
 70
     1
102
RTVSPropertyOp56
 70
     1
102
RTVSPropertyOp57
 70
     1
102
RTVSPropertyOp58
 70
     1
102
RTVSPropertyOp59
 70
     1
102
RTVSPropertyOp60
 70
     1
102
RTVSPropertyOp61
 70
     1
102
RTVSPropertyOp62
 70
     1
  0
XRECORD
  5
746
102
{ACAD_REACTORS
330
745
102
}
330
745
100
AcDbXrecord
280
     1
102
RTVSPost2010Prop28
280
     0
102
RTVSPost2010PropOp28
 70
     1
102
RTVSPost2010Prop29
280
     1
102
RTVSPost2010PropOp29
 70
     1
102
RTVSPost2010Prop30
280
     1
102
RTVSPost2010PropOp30
 70
     1
102
RTVSPost2010Prop31
280
     0
102
RTVSPost2010PropOp31
 70
     1
102
RTVSPost2010Prop32
280
     0
102
RTVSPost2010PropOp32
 70
     1
102
RTVSPost2010Prop33
280
     0
102
RTVSPost2010PropOp33
 70
     1
102
RTVSPost2010Prop34
280
     0
102
RTVSPost2010PropOp34
 70
     1
102
RTVSPost2010Prop35
280
     0
102
RTVSPost2010PropOp35
 70
     1
102
RTVSPost2010Prop36
280
     0
102
RTVSPost2010PropOp36
 70
     1
102
RTVSPost2010Prop37
 90
       50
102
RTVSPost2010PropOp37
 70
     1
102
RTVSPost2010Prop38
140
0.0
102
RTVSPost2010PropOp38
 70
     1
102
RTVSPost2010Prop39
140
1.0
102
RTVSPost2010PropOp39
 70
     1
102
RTVSPost2010Prop40
 90
        0
102
RTVSPost2010PropOp40
 70
     1
102
RTVSPost2010Prop41ColorIndex
 90
       18
102
RTVSPost2010Prop41ColorRGB
 90
        0
102
RTVSPost2010PropOp41
 70
     1
102
RTVSPost2010Prop42
 90
       50
102
RTVSPost2010PropOp42
 70
     1
102
RTVSPost2010Prop43
 90
        3
102
RTVSPost2010PropOp43
 70
     1
102
RTVSPost2010Prop44ColorIndex
 90
        5
102
RTVSPost2010Prop44ColorRGB
 90
      255
102
RTVSPost2010PropOp44
 70
     1
102
RTVSPost2010Prop45
280
     0
102
RTVSPost2010PropOp45
 70
     1
102
RTVSPost2010Prop46
 90
       50
102
RTVSPost2010PropOp46
 70
     1
102
RTVSPost2010Prop47
 90
       50
102
RTVSPost2010PropOp47
 70
     1
102
RTVSPost2010Prop48
 90
       50
102
RTVSPost2010PropOp48
 70
     1
102
RTVSPost2010Prop49
280
     0
102
RTVSPost2010PropOp49
 70
     1
102
RTVSPost2010Prop50
 90
       50
102
RTVSPost2010PropOp50
 70
     1
102
RTVSPost2010Prop51ColorIndex
 90
      256
102
RTVSPost2010Prop51ColorRGB
 90
-16777216
102
RTVSPost2010PropOp51
 70
     0
102
RTVSPost2010Prop52
140
1.0
102
RTVSPost2010PropOp52
 70
     0
102
RTVSPost2010Prop53
 90
        2
102
RTVSPost2010PropOp53
 70
     1
102
RTVSPost2010Prop54
  1
strokes_ogs.tif
102
RTVSPost2010PropOp54
 70
     1
102
RTVSPost2010Prop55
280
     0
102
RTVSPost2010PropOp55
 70
     1
102
RTVSPost2010Prop56
140
1.0
102
RTVSPost2010PropOp56
 70
     1
102
RTVSPost2010Prop57
140
1.0
102
RTVSPost2010PropOp57
 70
     1
102
RTVSPropertyOp0
 70
     1
102
RTVSPropertyOp1
 70
     1
102
RTVSPropertyOp2
 70
     1
102
RTVSPropertyOp3
 70
     1
102
RTVSPropertyOp4
 70
     1
102
RTVSPropertyOp5
 70
     1
102
RTVSPropertyOp6
 70
     1
102
RTVSPropertyOp7
 70
     1
102
RTVSPropertyOp8
 70
     1
102
RTVSPropertyOp9
 70
     1
102
RTVSPropertyOp10
 70
     1
102
RTVSPropertyOp11
 70
     1
102
RTVSPropertyOp12
 70
     1
102
RTVSPropertyOp13
 70
     1
102
RTVSPropertyOp14
 70
     1
102
RTVSPropertyOp15
 70
     1
102
RTVSPropertyOp16
 70
     1
102
RTVSPropertyOp17
 70
     1
102
RTVSPropertyOp18
 70
     1
102
RTVSPropertyOp19
 70
     1
102
RTVSPropertyOp20
 70
     1
102
RTVSPropertyOp21
 70
     1
102
RTVSPropertyOp22
 70
     1
102
RTVSPropertyOp23
 70
     1
102
RTVSPropertyOp24
 70
     1
102
RTVSPropertyOp25
 70
     1
102
RTVSPropertyOp26
 70
     1
102
RTVSPropertyOp27
 70
     1
102
RTVSPropertyOp28
 70
     1
102
RTVSPropertyOp29
 70
     1
102
RTVSPropertyOp30
 70
     1
102
RTVSPropertyOp31
 70
     1
102
RTVSPropertyOp32
 70
     1
102
RTVSPropertyOp33
 70
     1
102
RTVSPropertyOp34
 70
     1
102
RTVSPropertyOp35
 70
     1
102
RTVSPropertyOp36
 70
     1
102
RTVSPropertyOp37
 70
     1
102
RTVSPropertyOp38
 70
     1
102
RTVSPropertyOp39
 70
     1
102
RTVSPropertyOp40
 70
     1
102
RTVSPropertyOp41
 70
     1
102
RTVSPropertyOp42
 70
     1
102
RTVSPropertyOp43
 70
     1
102
RTVSPropertyOp44
 70
     1
102
RTVSPropertyOp45
 70
     1
102
RTVSPropertyOp46
 70
     1
102
RTVSPropertyOp47
 70
     1
102
RTVSPropertyOp48
 70
     1
102
RTVSPropertyOp49
 70
     1
102
RTVSPropertyOp50
 70
     1
102
RTVSPropertyOp51
 70
     0
102
RTVSPropertyOp52
 70
     0
102
RTVSPropertyOp53
 70
     1
102
RTVSPropertyOp54
 70
     1
102
RTVSPropertyOp55
 70
     1
102
RTVSPropertyOp56
 70
     1
102
RTVSPropertyOp57
 70
     1
102
RTVSPropertyOp58
 70
     1
102
RTVSPropertyOp59
 70
     1
102
RTVSPropertyOp60
 70
     1
102
RTVSPropertyOp61
 70
     1
102
RTVSPropertyOp62
 70
     1
  0
XRECORD
  5
72A
102
{ACAD_REACTORS
330
729
102
}
330
729
100
AcDbXrecord
280
     1
102
RTVSPost2010Prop28
280
     0
102
RTVSPost2010PropOp28
 70
     1
102
RTVSPost2010Prop29
280
     1
102
RTVSPost2010PropOp29
 70
     1
102
RTVSPost2010Prop30
280
     1
102
RTVSPost2010PropOp30
 70
     1
102
RTVSPost2010Prop31
280
     0
102
RTVSPost2010PropOp31
 70
     1
102
RTVSPost2010Prop32
280
     0
102
RTVSPost2010PropOp32
 70
     1
102
RTVSPost2010Prop33
280
     0
102
RTVSPost2010PropOp33
 70
     1
102
RTVSPost2010Prop34
280
     0
102
RTVSPost2010PropOp34
 70
     1
102
RTVSPost2010Prop35
280
     0
102
RTVSPost2010PropOp35
 70
     1
102
RTVSPost2010Prop36
280
     0
102
RTVSPost2010PropOp36
 70
     1
102
RTVSPost2010Prop37
 90
       50
102
RTVSPost2010PropOp37
 70
     1
102
RTVSPost2010Prop38
140
0.0
102
RTVSPost2010PropOp38
 70
     1
102
RTVSPost2010Prop39
140
1.0
102
RTVSPost2010PropOp39
 70
     1
102
RTVSPost2010Prop40
 90
        0
102
RTVSPost2010PropOp40
 70
     1
102
RTVSPost2010Prop41ColorIndex
 90
       18
102
RTVSPost2010Prop41ColorRGB
 90
        0
102
RTVSPost2010PropOp41
 70
     1
102
RTVSPost2010Prop42
 90
       50
102
RTVSPost2010PropOp42
 70
     1
102
RTVSPost2010Prop43
 90
        3
102
RTVSPost2010PropOp43
 70
     1
102
RTVSPost2010Prop44ColorIndex
 90
        5
102
RTVSPost2010Prop44ColorRGB
 90
      255
102
RTVSPost2010PropOp44
 70
     1
102
RTVSPost2010Prop45
280
     0
102
RTVSPost2010PropOp45
 70
     1
102
RTVSPost2010Prop46
 90
       50
102
RTVSPost2010PropOp46
 70
     1
102
RTVSPost2010Prop47
 90
       50
102
RTVSPost2010PropOp47
 70
     1
102
RTVSPost2010Prop48
 90
       50
102
RTVSPost2010PropOp48
 70
     1
102
RTVSPost2010Prop49
280
     0
102
RTVSPost2010PropOp49
 70
     1
102
RTVSPost2010Prop50
 90
       50
102
RTVSPost2010PropOp50
 70
     1
102
RTVSPost2010Prop51ColorIndex
 90
      256
102
RTVSPost2010Prop51ColorRGB
 90
-16777216
102
RTVSPost2010PropOp51
 70
     0
102
RTVSPost2010Prop52
140
1.0
102
RTVSPost2010PropOp52
 70
     0
102
RTVSPost2010Prop53
 90
        2
102
RTVSPost2010PropOp53
 70
     1
102
RTVSPost2010Prop54
  1
strokes_ogs.tif
102
RTVSPost2010PropOp54
 70
     1
102
RTVSPost2010Prop55
280
     0
102
RTVSPost2010PropOp55
 70
     1
102
RTVSPost2010Prop56
140
1.0
102
RTVSPost2010PropOp56
 70
     1
102
RTVSPost2010Prop57
140
1.0
102
RTVSPost2010PropOp57
 70
     1
102
RTVSPropertyOp0
 70
     1
102
RTVSPropertyOp1
 70
     1
102
RTVSPropertyOp2
 70
     1
102
RTVSPropertyOp3
 70
     1
102
RTVSPropertyOp4
 70
     1
102
RTVSPropertyOp5
 70
     1
102
RTVSPropertyOp6
 70
     1
102
RTVSPropertyOp7
 70
     1
102
RTVSPropertyOp8
 70
     1
102
RTVSPropertyOp9
 70
     1
102
RTVSPropertyOp10
 70
     1
102
RTVSPropertyOp11
 70
     1
102
RTVSPropertyOp12
 70
     1
102
RTVSPropertyOp13
 70
     1
102
RTVSPropertyOp14
 70
     1
102
RTVSPropertyOp15
 70
     1
102
RTVSPropertyOp16
 70
     1
102
RTVSPropertyOp17
 70
     1
102
RTVSPropertyOp18
 70
     1
102
RTVSPropertyOp19
 70
     1
102
RTVSPropertyOp20
 70
     1
102
RTVSPropertyOp21
 70
     1
102
RTVSPropertyOp22
 70
     1
102
RTVSPropertyOp23
 70
     1
102
RTVSPropertyOp24
 70
     1
102
RTVSPropertyOp25
 70
     1
102
RTVSPropertyOp26
 70
     1
102
RTVSPropertyOp27
 70
     1
102
RTVSPropertyOp28
 70
     1
102
RTVSPropertyOp29
 70
     1
102
RTVSPropertyOp30
 70
     1
102
RTVSPropertyOp31
 70
     1
102
RTVSPropertyOp32
 70
     1
102
RTVSPropertyOp33
 70
     1
102
RTVSPropertyOp34
 70
     1
102
RTVSPropertyOp35
 70
     1
102
RTVSPropertyOp36
 70
     1
102
RTVSPropertyOp37
 70
     1
102
RTVSPropertyOp38
 70
     1
102
RTVSPropertyOp39
 70
     1
102
RTVSPropertyOp40
 70
     1
102
RTVSPropertyOp41
 70
     1
102
RTVSPropertyOp42
 70
     1
102
RTVSPropertyOp43
 70
     1
102
RTVSPropertyOp44
 70
     1
102
RTVSPropertyOp45
 70
     1
102
RTVSPropertyOp46
 70
     1
102
RTVSPropertyOp47
 70
     1
102
RTVSPropertyOp48
 70
     1
102
RTVSPropertyOp49
 70
     1
102
RTVSPropertyOp50
 70
     1
102
RTVSPropertyOp51
 70
     0
102
RTVSPropertyOp52
 70
     0
102
RTVSPropertyOp53
 70
     1
102
RTVSPropertyOp54
 70
     1
102
RTVSPropertyOp55
 70
     1
102
RTVSPropertyOp56
 70
     1
102
RTVSPropertyOp57
 70
     1
102
RTVSPropertyOp58
 70
     1
102
RTVSPropertyOp59
 70
     1
102
RTVSPropertyOp60
 70
     1
102
RTVSPropertyOp61
 70
     1
102
RTVSPropertyOp62
 70
     1
  0
XRECORD
  5
72C
102
{ACAD_REACTORS
330
72B
102
}
330
72B
100
AcDbXrecord
280
     1
102
RTVSPost2010Prop28
280
     0
102
RTVSPost2010PropOp28
 70
     1
102
RTVSPost2010Prop29
280
     1
102
RTVSPost2010PropOp29
 70
     1
102
RTVSPost2010Prop30
280
     1
102
RTVSPost2010PropOp30
 70
     1
102
RTVSPost2010Prop31
280
     0
102
RTVSPost2010PropOp31
 70
     1
102
RTVSPost2010Prop32
280
     0
102
RTVSPost2010PropOp32
 70
     1
102
RTVSPost2010Prop33
280
     0
102
RTVSPost2010PropOp33
 70
     1
102
RTVSPost2010Prop34
280
     0
102
RTVSPost2010PropOp34
 70
     1
102
RTVSPost2010Prop35
280
     0
102
RTVSPost2010PropOp35
 70
     1
102
RTVSPost2010Prop36
280
     0
102
RTVSPost2010PropOp36
 70
     1
102
RTVSPost2010Prop37
 90
       50
102
RTVSPost2010PropOp37
 70
     1
102
RTVSPost2010Prop38
140
0.0
102
RTVSPost2010PropOp38
 70
     1
102
RTVSPost2010Prop39
140
1.0
102
RTVSPost2010PropOp39
 70
     1
102
RTVSPost2010Prop40
 90
        0
102
RTVSPost2010PropOp40
 70
     1
102
RTVSPost2010Prop41ColorIndex
 90
       18
102
RTVSPost2010Prop41ColorRGB
 90
        0
102
RTVSPost2010PropOp41
 70
     1
102
RTVSPost2010Prop42
 90
       50
102
RTVSPost2010PropOp42
 70
     1
102
RTVSPost2010Prop43
 90
        3
102
RTVSPost2010PropOp43
 70
     1
102
RTVSPost2010Prop44ColorIndex
 90
        5
102
RTVSPost2010Prop44ColorRGB
 90
      255
102
RTVSPost2010PropOp44
 70
     1
102
RTVSPost2010Prop45
280
     0
102
RTVSPost2010PropOp45
 70
     1
102
RTVSPost2010Prop46
 90
       50
102
RTVSPost2010PropOp46
 70
     1
102
RTVSPost2010Prop47
 90
       50
102
RTVSPost2010PropOp47
 70
     1
102
RTVSPost2010Prop48
 90
       50
102
RTVSPost2010PropOp48
 70
     1
102
RTVSPost2010Prop49
280
     0
102
RTVSPost2010PropOp49
 70
     1
102
RTVSPost2010Prop50
 90
       50
102
RTVSPost2010PropOp50
 70
     1
102
RTVSPost2010Prop51ColorIndex
 90
      256
102
RTVSPost2010Prop51ColorRGB
 90
-16777216
102
RTVSPost2010PropOp51
 70
     0
102
RTVSPost2010Prop52
140
1.0
102
RTVSPost2010PropOp52
 70
     0
102
RTVSPost2010Prop53
 90
        2
102
RTVSPost2010PropOp53
 70
     1
102
RTVSPost2010Prop54
  1
strokes_ogs.tif
102
RTVSPost2010PropOp54
 70
     1
102
RTVSPost2010Prop55
280
     0
102
RTVSPost2010PropOp55
 70
     1
102
RTVSPost2010Prop56
140
1.0
102
RTVSPost2010PropOp56
 70
     1
102
RTVSPost2010Prop57
140
1.0
102
RTVSPost2010PropOp57
 70
     1
102
RTVSPropertyOp0
 70
     1
102
RTVSPropertyOp1
 70
     1
102
RTVSPropertyOp2
 70
     1
102
RTVSPropertyOp3
 70
     1
102
RTVSPropertyOp4
 70
     1
102
RTVSPropertyOp5
 70
     1
102
RTVSPropertyOp6
 70
     1
102
RTVSPropertyOp7
 70
     1
102
RTVSPropertyOp8
 70
     1
102
RTVSPropertyOp9
 70
     1
102
RTVSPropertyOp10
 70
     1
102
RTVSPropertyOp11
 70
     1
102
RTVSPropertyOp12
 70
     1
102
RTVSPropertyOp13
 70
     1
102
RTVSPropertyOp14
 70
     1
102
RTVSPropertyOp15
 70
     1
102
RTVSPropertyOp16
 70
     1
102
RTVSPropertyOp17
 70
     1
102
RTVSPropertyOp18
 70
     1
102
RTVSPropertyOp19
 70
     1
102
RTVSPropertyOp20
 70
     1
102
RTVSPropertyOp21
 70
     1
102
RTVSPropertyOp22
 70
     1
102
RTVSPropertyOp23
 70
     1
102
RTVSPropertyOp24
 70
     1
102
RTVSPropertyOp25
 70
     1
102
RTVSPropertyOp26
 70
     1
102
RTVSPropertyOp27
 70
     1
102
RTVSPropertyOp28
 70
     1
102
RTVSPropertyOp29
 70
     1
102
RTVSPropertyOp30
 70
     1
102
RTVSPropertyOp31
 70
     1
102
RTVSPropertyOp32
 70
     1
102
RTVSPropertyOp33
 70
     1
102
RTVSPropertyOp34
 70
     1
102
RTVSPropertyOp35
 70
     1
102
RTVSPropertyOp36
 70
     1
102
RTVSPropertyOp37
 70
     1
102
RTVSPropertyOp38
 70
     1
102
RTVSPropertyOp39
 70
     1
102
RTVSPropertyOp40
 70
     1
102
RTVSPropertyOp41
 70
     1
102
RTVSPropertyOp42
 70
     1
102
RTVSPropertyOp43
 70
     1
102
RTVSPropertyOp44
 70
     1
102
RTVSPropertyOp45
 70
     1
102
RTVSPropertyOp46
 70
     1
102
RTVSPropertyOp47
 70
     1
102
RTVSPropertyOp48
 70
     1
102
RTVSPropertyOp49
 70
     1
102
RTVSPropertyOp50
 70
     1
102
RTVSPropertyOp51
 70
     0
102
RTVSPropertyOp52
 70
     0
102
RTVSPropertyOp53
 70
     1
102
RTVSPropertyOp54
 70
     1
102
RTVSPropertyOp55
 70
     1
102
RTVSPropertyOp56
 70
     1
102
RTVSPropertyOp57
 70
     1
102
RTVSPropertyOp58
 70
     1
102
RTVSPropertyOp59
 70
     1
102
RTVSPropertyOp60
 70
     1
102
RTVSPropertyOp61
 70
     1
102
RTVSPropertyOp62
 70
     1
  0
XRECORD
  5
72E
102
{ACAD_REACTORS
330
72D
102
}
330
72D
100
AcDbXrecord
280
     1
102
RTVSPost2010Prop28
280
     0
102
RTVSPost2010PropOp28
 70
     1
102
RTVSPost2010Prop29
280
     1
102
RTVSPost2010PropOp29
 70
     1
102
RTVSPost2010Prop30
280
     1
102
RTVSPost2010PropOp30
 70
     1
102
RTVSPost2010Prop31
280
     0
102
RTVSPost2010PropOp31
 70
     1
102
RTVSPost2010Prop32
280
     0
102
RTVSPost2010PropOp32
 70
     1
102
RTVSPost2010Prop33
280
     0
102
RTVSPost2010PropOp33
 70
     1
102
RTVSPost2010Prop34
280
     0
102
RTVSPost2010PropOp34
 70
     1
102
RTVSPost2010Prop35
280
     0
102
RTVSPost2010PropOp35
 70
     1
102
RTVSPost2010Prop36
280
     0
102
RTVSPost2010PropOp36
 70
     1
102
RTVSPost2010Prop37
 90
       50
102
RTVSPost2010PropOp37
 70
     1
102
RTVSPost2010Prop38
140
0.0
102
RTVSPost2010PropOp38
 70
     1
102
RTVSPost2010Prop39
140
1.0
102
RTVSPost2010PropOp39
 70
     1
102
RTVSPost2010Prop40
 90
        0
102
RTVSPost2010PropOp40
 70
     1
102
RTVSPost2010Prop41ColorIndex
 90
       18
102
RTVSPost2010Prop41ColorRGB
 90
        0
102
RTVSPost2010PropOp41
 70
     1
102
RTVSPost2010Prop42
 90
       50
102
RTVSPost2010PropOp42
 70
     1
102
RTVSPost2010Prop43
 90
        3
102
RTVSPost2010PropOp43
 70
     1
102
RTVSPost2010Prop44ColorIndex
 90
        5
102
RTVSPost2010Prop44ColorRGB
 90
      255
102
RTVSPost2010PropOp44
 70
     1
102
RTVSPost2010Prop45
280
     0
102
RTVSPost2010PropOp45
 70
     1
102
RTVSPost2010Prop46
 90
       50
102
RTVSPost2010PropOp46
 70
     1
102
RTVSPost2010Prop47
 90
       50
102
RTVSPost2010PropOp47
 70
     1
102
RTVSPost2010Prop48
 90
       50
102
RTVSPost2010PropOp48
 70
     1
102
RTVSPost2010Prop49
280
     0
102
RTVSPost2010PropOp49
 70
     1
102
RTVSPost2010Prop50
 90
       50
102
RTVSPost2010PropOp50
 70
     1
102
RTVSPost2010Prop51ColorIndex
 90
      256
102
RTVSPost2010Prop51ColorRGB
 90
-16777216
102
RTVSPost2010PropOp51
 70
     0
102
RTVSPost2010Prop52
140
1.0
102
RTVSPost2010PropOp52
 70
     0
102
RTVSPost2010Prop53
 90
        2
102
RTVSPost2010PropOp53
 70
     1
102
RTVSPost2010Prop54
  1
strokes_ogs.tif
102
RTVSPost2010PropOp54
 70
     1
102
RTVSPost2010Prop55
280
     0
102
RTVSPost2010PropOp55
 70
     1
102
RTVSPost2010Prop56
140
1.0
102
RTVSPost2010PropOp56
 70
     1
102
RTVSPost2010Prop57
140
1.0
102
RTVSPost2010PropOp57
 70
     1
102
RTVSPropertyOp0
 70
     1
102
RTVSPropertyOp1
 70
     1
102
RTVSPropertyOp2
 70
     1
102
RTVSPropertyOp3
 70
     1
102
RTVSPropertyOp4
 70
     1
102
RTVSPropertyOp5
 70
     1
102
RTVSPropertyOp6
 70
     1
102
RTVSPropertyOp7
 70
     1
102
RTVSPropertyOp8
 70
     1
102
RTVSPropertyOp9
 70
     1
102
RTVSPropertyOp10
 70
     1
102
RTVSPropertyOp11
 70
     1
102
RTVSPropertyOp12
 70
     1
102
RTVSPropertyOp13
 70
     1
102
RTVSPropertyOp14
 70
     1
102
RTVSPropertyOp15
 70
     1
102
RTVSPropertyOp16
 70
     1
102
RTVSPropertyOp17
 70
     1
102
RTVSPropertyOp18
 70
     1
102
RTVSPropertyOp19
 70
     1
102
RTVSPropertyOp20
 70
     1
102
RTVSPropertyOp21
 70
     1
102
RTVSPropertyOp22
 70
     1
102
RTVSPropertyOp23
 70
     1
102
RTVSPropertyOp24
 70
     1
102
RTVSPropertyOp25
 70
     1
102
RTVSPropertyOp26
 70
     1
102
RTVSPropertyOp27
 70
     1
102
RTVSPropertyOp28
 70
     1
102
RTVSPropertyOp29
 70
     1
102
RTVSPropertyOp30
 70
     1
102
RTVSPropertyOp31
 70
     1
102
RTVSPropertyOp32
 70
     1
102
RTVSPropertyOp33
 70
     1
102
RTVSPropertyOp34
 70
     1
102
RTVSPropertyOp35
 70
     1
102
RTVSPropertyOp36
 70
     1
102
RTVSPropertyOp37
 70
     1
102
RTVSPropertyOp38
 70
     1
102
RTVSPropertyOp39
 70
     1
102
RTVSPropertyOp40
 70
     1
102
RTVSPropertyOp41
 70
     1
102
RTVSPropertyOp42
 70
     1
102
RTVSPropertyOp43
 70
     1
102
RTVSPropertyOp44
 70
     1
102
RTVSPropertyOp45
 70
     1
102
RTVSPropertyOp46
 70
     1
102
RTVSPropertyOp47
 70
     1
102
RTVSPropertyOp48
 70
     1
102
RTVSPropertyOp49
 70
     1
102
RTVSPropertyOp50
 70
     1
102
RTVSPropertyOp51
 70
     0
102
RTVSPropertyOp52
 70
     0
102
RTVSPropertyOp53
 70
     1
102
RTVSPropertyOp54
 70
     1
102
RTVSPropertyOp55
 70
     1
102
RTVSPropertyOp56
 70
     1
102
RTVSPropertyOp57
 70
     1
102
RTVSPropertyOp58
 70
     1
102
RTVSPropertyOp59
 70
     1
102
RTVSPropertyOp60
 70
     1
102
RTVSPropertyOp61
 70
     1
102
RTVSPropertyOp62
 70
     1
  0
XRECORD
  5
730
102
{ACAD_REACTORS
330
72F
102
}
330
72F
100
AcDbXrecord
280
     1
102
RTVSPost2010Prop28
280
     0
102
RTVSPost2010PropOp28
 70
     1
102
RTVSPost2010Prop29
280
     1
102
RTVSPost2010PropOp29
 70
     1
102
RTVSPost2010Prop30
280
     1
102
RTVSPost2010PropOp30
 70
     1
102
RTVSPost2010Prop31
280
     0
102
RTVSPost2010PropOp31
 70
     1
102
RTVSPost2010Prop32
280
     0
102
RTVSPost2010PropOp32
 70
     1
102
RTVSPost2010Prop33
280
     0
102
RTVSPost2010PropOp33
 70
     1
102
RTVSPost2010Prop34
280
     0
102
RTVSPost2010PropOp34
 70
     1
102
RTVSPost2010Prop35
280
     0
102
RTVSPost2010PropOp35
 70
     1
102
RTVSPost2010Prop36
280
     0
102
RTVSPost2010PropOp36
 70
     1
102
RTVSPost2010Prop37
 90
       50
102
RTVSPost2010PropOp37
 70
     1
102
RTVSPost2010Prop38
140
0.0
102
RTVSPost2010PropOp38
 70
     1
102
RTVSPost2010Prop39
140
1.0
102
RTVSPost2010PropOp39
 70
     1
102
RTVSPost2010Prop40
 90
        0
102
RTVSPost2010PropOp40
 70
     1
102
RTVSPost2010Prop41ColorIndex
 90
       18
102
RTVSPost2010Prop41ColorRGB
 90
        0
102
RTVSPost2010PropOp41
 70
     1
102
RTVSPost2010Prop42
 90
       50
102
RTVSPost2010PropOp42
 70
     1
102
RTVSPost2010Prop43
 90
        3
102
RTVSPost2010PropOp43
 70
     1
102
RTVSPost2010Prop44ColorIndex
 90
        5
102
RTVSPost2010Prop44ColorRGB
 90
      255
102
RTVSPost2010PropOp44
 70
     1
102
RTVSPost2010Prop45
280
     0
102
RTVSPost2010PropOp45
 70
     1
102
RTVSPost2010Prop46
 90
       50
102
RTVSPost2010PropOp46
 70
     1
102
RTVSPost2010Prop47
 90
       50
102
RTVSPost2010PropOp47
 70
     1
102
RTVSPost2010Prop48
 90
       50
102
RTVSPost2010PropOp48
 70
     1
102
RTVSPost2010Prop49
280
     0
102
RTVSPost2010PropOp49
 70
     1
102
RTVSPost2010Prop50
 90
       50
102
RTVSPost2010PropOp50
 70
     1
102
RTVSPost2010Prop51ColorIndex
 90
      256
102
RTVSPost2010Prop51ColorRGB
 90
-16777216
102
RTVSPost2010PropOp51
 70
     0
102
RTVSPost2010Prop52
140
1.0
102
RTVSPost2010PropOp52
 70
     0
102
RTVSPost2010Prop53
 90
        2
102
RTVSPost2010PropOp53
 70
     1
102
RTVSPost2010Prop54
  1
strokes_ogs.tif
102
RTVSPost2010PropOp54
 70
     1
102
RTVSPost2010Prop55
280
     0
102
RTVSPost2010PropOp55
 70
     1
102
RTVSPost2010Prop56
140
1.0
102
RTVSPost2010PropOp56
 70
     1
102
RTVSPost2010Prop57
140
1.0
102
RTVSPost2010PropOp57
 70
     1
102
RTVSPropertyOp0
 70
     1
102
RTVSPropertyOp1
 70
     1
102
RTVSPropertyOp2
 70
     1
102
RTVSPropertyOp3
 70
     1
102
RTVSPropertyOp4
 70
     1
102
RTVSPropertyOp5
 70
     1
102
RTVSPropertyOp6
 70
     1
102
RTVSPropertyOp7
 70
     1
102
RTVSPropertyOp8
 70
     1
102
RTVSPropertyOp9
 70
     1
102
RTVSPropertyOp10
 70
     1
102
RTVSPropertyOp11
 70
     1
102
RTVSPropertyOp12
 70
     1
102
RTVSPropertyOp13
 70
     1
102
RTVSPropertyOp14
 70
     1
102
RTVSPropertyOp15
 70
     1
102
RTVSPropertyOp16
 70
     1
102
RTVSPropertyOp17
 70
     1
102
RTVSPropertyOp18
 70
     1
102
RTVSPropertyOp19
 70
     1
102
RTVSPropertyOp20
 70
     1
102
RTVSPropertyOp21
 70
     1
102
RTVSPropertyOp22
 70
     1
102
RTVSPropertyOp23
 70
     1
102
RTVSPropertyOp24
 70
     1
102
RTVSPropertyOp25
 70
     1
102
RTVSPropertyOp26
 70
     1
102
RTVSPropertyOp27
 70
     1
102
RTVSPropertyOp28
 70
     1
102
RTVSPropertyOp29
 70
     1
102
RTVSPropertyOp30
 70
     1
102
RTVSPropertyOp31
 70
     1
102
RTVSPropertyOp32
 70
     1
102
RTVSPropertyOp33
 70
     1
102
RTVSPropertyOp34
 70
     1
102
RTVSPropertyOp35
 70
     1
102
RTVSPropertyOp36
 70
     1
102
RTVSPropertyOp37
 70
     1
102
RTVSPropertyOp38
 70
     1
102
RTVSPropertyOp39
 70
     1
102
RTVSPropertyOp40
 70
     1
102
RTVSPropertyOp41
 70
     1
102
RTVSPropertyOp42
 70
     1
102
RTVSPropertyOp43
 70
     1
102
RTVSPropertyOp44
 70
     1
102
RTVSPropertyOp45
 70
     1
102
RTVSPropertyOp46
 70
     1
102
RTVSPropertyOp47
 70
     1
102
RTVSPropertyOp48
 70
     1
102
RTVSPropertyOp49
 70
     1
102
RTVSPropertyOp50
 70
     1
102
RTVSPropertyOp51
 70
     0
102
RTVSPropertyOp52
 70
     0
102
RTVSPropertyOp53
 70
     1
102
RTVSPropertyOp54
 70
     1
102
RTVSPropertyOp55
 70
     1
102
RTVSPropertyOp56
 70
     1
102
RTVSPropertyOp57
 70
     1
102
RTVSPropertyOp58
 70
     1
102
RTVSPropertyOp59
 70
     1
102
RTVSPropertyOp60
 70
     1
102
RTVSPropertyOp61
 70
     1
102
RTVSPropertyOp62
 70
     1
  0
XRECORD
  5
736
102
{ACAD_REACTORS
330
735
102
}
330
735
100
AcDbXrecord
280
     1
102
RTVSPost2010Prop28
280
     0
102
RTVSPost2010PropOp28
 70
     1
102
RTVSPost2010Prop29
280
     1
102
RTVSPost2010PropOp29
 70
     1
102
RTVSPost2010Prop30
280
     1
102
RTVSPost2010PropOp30
 70
     1
102
RTVSPost2010Prop31
280
     0
102
RTVSPost2010PropOp31
 70
     1
102
RTVSPost2010Prop32
280
     0
102
RTVSPost2010PropOp32
 70
     1
102
RTVSPost2010Prop33
280
     0
102
RTVSPost2010PropOp33
 70
     1
102
RTVSPost2010Prop34
280
     0
102
RTVSPost2010PropOp34
 70
     1
102
RTVSPost2010Prop35
280
     0
102
RTVSPost2010PropOp35
 70
     1
102
RTVSPost2010Prop36
280
     0
102
RTVSPost2010PropOp36
 70
     1
102
RTVSPost2010Prop37
 90
       50
102
RTVSPost2010PropOp37
 70
     1
102
RTVSPost2010Prop38
140
0.0
102
RTVSPost2010PropOp38
 70
     1
102
RTVSPost2010Prop39
140
1.0
102
RTVSPost2010PropOp39
 70
     1
102
RTVSPost2010Prop40
 90
        0
102
RTVSPost2010PropOp40
 70
     1
102
RTVSPost2010Prop41ColorIndex
 90
       18
102
RTVSPost2010Prop41ColorRGB
 90
        0
102
RTVSPost2010PropOp41
 70
     1
102
RTVSPost2010Prop42
 90
       50
102
RTVSPost2010PropOp42
 70
     1
102
RTVSPost2010Prop43
 90
        3
102
RTVSPost2010PropOp43
 70
     1
102
RTVSPost2010Prop44ColorIndex
 90
        5
102
RTVSPost2010Prop44ColorRGB
 90
      255
102
RTVSPost2010PropOp44
 70
     1
102
RTVSPost2010Prop45
280
     0
102
RTVSPost2010PropOp45
 70
     1
102
RTVSPost2010Prop46
 90
       50
102
RTVSPost2010PropOp46
 70
     1
102
RTVSPost2010Prop47
 90
       50
102
RTVSPost2010PropOp47
 70
     1
102
RTVSPost2010Prop48
 90
       50
102
RTVSPost2010PropOp48
 70
     1
102
RTVSPost2010Prop49
280
     0
102
RTVSPost2010PropOp49
 70
     1
102
RTVSPost2010Prop50
 90
       50
102
RTVSPost2010PropOp50
 70
     1
102
RTVSPost2010Prop51ColorIndex
 90
      256
102
RTVSPost2010Prop51ColorRGB
 90
-16777216
102
RTVSPost2010PropOp51
 70
     0
102
RTVSPost2010Prop52
140
1.0
102
RTVSPost2010PropOp52
 70
     0
102
RTVSPost2010Prop53
 90
        2
102
RTVSPost2010PropOp53
 70
     1
102
RTVSPost2010Prop54
  1
strokes_ogs.tif
102
RTVSPost2010PropOp54
 70
     1
102
RTVSPost2010Prop55
280
     0
102
RTVSPost2010PropOp55
 70
     1
102
RTVSPost2010Prop56
140
1.0
102
RTVSPost2010PropOp56
 70
     1
102
RTVSPost2010Prop57
140
1.0
102
RTVSPost2010PropOp57
 70
     1
102
RTVSPropertyOp0
 70
     1
102
RTVSPropertyOp1
 70
     1
102
RTVSPropertyOp2
 70
     1
102
RTVSPropertyOp3
 70
     1
102
RTVSPropertyOp4
 70
     1
102
RTVSPropertyOp5
 70
     1
102
RTVSPropertyOp6
 70
     1
102
RTVSPropertyOp7
 70
     1
102
RTVSPropertyOp8
 70
     1
102
RTVSPropertyOp9
 70
     1
102
RTVSPropertyOp10
 70
     1
102
RTVSPropertyOp11
 70
     1
102
RTVSPropertyOp12
 70
     1
102
RTVSPropertyOp13
 70
     1
102
RTVSPropertyOp14
 70
     1
102
RTVSPropertyOp15
 70
     1
102
RTVSPropertyOp16
 70
     1
102
RTVSPropertyOp17
 70
     1
102
RTVSPropertyOp18
 70
     1
102
RTVSPropertyOp19
 70
     1
102
RTVSPropertyOp20
 70
     1
102
RTVSPropertyOp21
 70
     1
102
RTVSPropertyOp22
 70
     1
102
RTVSPropertyOp23
 70
     1
102
RTVSPropertyOp24
 70
     1
102
RTVSPropertyOp25
 70
     1
102
RTVSPropertyOp26
 70
     1
102
RTVSPropertyOp27
 70
     1
102
RTVSPropertyOp28
 70
     1
102
RTVSPropertyOp29
 70
     1
102
RTVSPropertyOp30
 70
     1
102
RTVSPropertyOp31
 70
     1
102
RTVSPropertyOp32
 70
     1
102
RTVSPropertyOp33
 70
     1
102
RTVSPropertyOp34
 70
     1
102
RTVSPropertyOp35
 70
     1
102
RTVSPropertyOp36
 70
     1
102
RTVSPropertyOp37
 70
     1
102
RTVSPropertyOp38
 70
     1
102
RTVSPropertyOp39
 70
     1
102
RTVSPropertyOp40
 70
     1
102
RTVSPropertyOp41
 70
     1
102
RTVSPropertyOp42
 70
     1
102
RTVSPropertyOp43
 70
     1
102
RTVSPropertyOp44
 70
     1
102
RTVSPropertyOp45
 70
     1
102
RTVSPropertyOp46
 70
     1
102
RTVSPropertyOp47
 70
     1
102
RTVSPropertyOp48
 70
     1
102
RTVSPropertyOp49
 70
     1
102
RTVSPropertyOp50
 70
     1
102
RTVSPropertyOp51
 70
     0
102
RTVSPropertyOp52
 70
     0
102
RTVSPropertyOp53
 70
     1
102
RTVSPropertyOp54
 70
     1
102
RTVSPropertyOp55
 70
     1
102
RTVSPropertyOp56
 70
     1
102
RTVSPropertyOp57
 70
     1
102
RTVSPropertyOp58
 70
     1
102
RTVSPropertyOp59
 70
     1
102
RTVSPropertyOp60
 70
     1
102
RTVSPropertyOp61
 70
     1
102
RTVSPropertyOp62
 70
     1
  0
XRECORD
  5
74A
102
{ACAD_REACTORS
330
749
102
}
330
749
100
AcDbXrecord
280
     1
102
RTVSPost2010Prop28
280
     0
102
RTVSPost2010PropOp28
 70
     1
102
RTVSPost2010Prop29
280
     1
102
RTVSPost2010PropOp29
 70
     1
102
RTVSPost2010Prop30
280
     1
102
RTVSPost2010PropOp30
 70
     1
102
RTVSPost2010Prop31
280
     0
102
RTVSPost2010PropOp31
 70
     1
102
RTVSPost2010Prop32
280
     0
102
RTVSPost2010PropOp32
 70
     1
102
RTVSPost2010Prop33
280
     0
102
RTVSPost2010PropOp33
 70
     1
102
RTVSPost2010Prop34
280
     0
102
RTVSPost2010PropOp34
 70
     1
102
RTVSPost2010Prop35
280
     0
102
RTVSPost2010PropOp35
 70
     1
102
RTVSPost2010Prop36
280
     0
102
RTVSPost2010PropOp36
 70
     1
102
RTVSPost2010Prop37
 90
       50
102
RTVSPost2010PropOp37
 70
     1
102
RTVSPost2010Prop38
140
0.0
102
RTVSPost2010PropOp38
 70
     1
102
RTVSPost2010Prop39
140
1.0
102
RTVSPost2010PropOp39
 70
     1
102
RTVSPost2010Prop40
 90
        0
102
RTVSPost2010PropOp40
 70
     1
102
RTVSPost2010Prop41ColorIndex
 90
       18
102
RTVSPost2010Prop41ColorRGB
 90
        0
102
RTVSPost2010PropOp41
 70
     1
102
RTVSPost2010Prop42
 90
       50
102
RTVSPost2010PropOp42
 70
     1
102
RTVSPost2010Prop43
 90
        3
102
RTVSPost2010PropOp43
 70
     1
102
RTVSPost2010Prop44ColorIndex
 90
        5
102
RTVSPost2010Prop44ColorRGB
 90
      255
102
RTVSPost2010PropOp44
 70
     1
102
RTVSPost2010Prop45
280
     0
102
RTVSPost2010PropOp45
 70
     1
102
RTVSPost2010Prop46
 90
       50
102
RTVSPost2010PropOp46
 70
     1
102
RTVSPost2010Prop47
 90
       50
102
RTVSPost2010PropOp47
 70
     1
102
RTVSPost2010Prop48
 90
       50
102
RTVSPost2010PropOp48
 70
     1
102
RTVSPost2010Prop49
280
     0
102
RTVSPost2010PropOp49
 70
     1
102
RTVSPost2010Prop50
 90
       50
102
RTVSPost2010PropOp50
 70
     1
102
RTVSPost2010Prop51ColorIndex
 90
      256
102
RTVSPost2010Prop51ColorRGB
 90
-16777216
102
RTVSPost2010PropOp51
 70
     0
102
RTVSPost2010Prop52
140
1.0
102
RTVSPost2010PropOp52
 70
     0
102
RTVSPost2010Prop53
 90
        2
102
RTVSPost2010PropOp53
 70
     1
102
RTVSPost2010Prop54
  1
strokes_ogs.tif
102
RTVSPost2010PropOp54
 70
     1
102
RTVSPost2010Prop55
280
     0
102
RTVSPost2010PropOp55
 70
     1
102
RTVSPost2010Prop56
140
1.0
102
RTVSPost2010PropOp56
 70
     1
102
RTVSPost2010Prop57
140
1.0
102
RTVSPost2010PropOp57
 70
     1
102
RTVSPropertyOp0
 70
     1
102
RTVSPropertyOp1
 70
     1
102
RTVSPropertyOp2
 70
     1
102
RTVSPropertyOp3
 70
     1
102
RTVSPropertyOp4
 70
     1
102
RTVSPropertyOp5
 70
     1
102
RTVSPropertyOp6
 70
     1
102
RTVSPropertyOp7
 70
     1
102
RTVSPropertyOp8
 70
     1
102
RTVSPropertyOp9
 70
     1
102
RTVSPropertyOp10
 70
     1
102
RTVSPropertyOp11
 70
     1
102
RTVSPropertyOp12
 70
     1
102
RTVSPropertyOp13
 70
     1
102
RTVSPropertyOp14
 70
     1
102
RTVSPropertyOp15
 70
     1
102
RTVSPropertyOp16
 70
     1
102
RTVSPropertyOp17
 70
     1
102
RTVSPropertyOp18
 70
     1
102
RTVSPropertyOp19
 70
     1
102
RTVSPropertyOp20
 70
     1
102
RTVSPropertyOp21
 70
     1
102
RTVSPropertyOp22
 70
     1
102
RTVSPropertyOp23
 70
     1
102
RTVSPropertyOp24
 70
     1
102
RTVSPropertyOp25
 70
     1
102
RTVSPropertyOp26
 70
     1
102
RTVSPropertyOp27
 70
     1
102
RTVSPropertyOp28
 70
     1
102
RTVSPropertyOp29
 70
     1
102
RTVSPropertyOp30
 70
     1
102
RTVSPropertyOp31
 70
     1
102
RTVSPropertyOp32
 70
     1
102
RTVSPropertyOp33
 70
     1
102
RTVSPropertyOp34
 70
     1
102
RTVSPropertyOp35
 70
     1
102
RTVSPropertyOp36
 70
     1
102
RTVSPropertyOp37
 70
     1
102
RTVSPropertyOp38
 70
     1
102
RTVSPropertyOp39
 70
     1
102
RTVSPropertyOp40
 70
     1
102
RTVSPropertyOp41
 70
     1
102
RTVSPropertyOp42
 70
     1
102
RTVSPropertyOp43
 70
     1
102
RTVSPropertyOp44
 70
     1
102
RTVSPropertyOp45
 70
     1
102
RTVSPropertyOp46
 70
     1
102
RTVSPropertyOp47
 70
     1
102
RTVSPropertyOp48
 70
     1
102
RTVSPropertyOp49
 70
     1
102
RTVSPropertyOp50
 70
     1
102
RTVSPropertyOp51
 70
     0
102
RTVSPropertyOp52
 70
     0
102
RTVSPropertyOp53
 70
     1
102
RTVSPropertyOp54
 70
     1
102
RTVSPropertyOp55
 70
     1
102
RTVSPropertyOp56
 70
     1
102
RTVSPropertyOp57
 70
     1
102
RTVSPropertyOp58
 70
     1
102
RTVSPropertyOp59
 70
     1
102
RTVSPropertyOp60
 70
     1
102
RTVSPropertyOp61
 70
     1
102
RTVSPropertyOp62
 70
     1
  0
XRECORD
  5
744
102
{ACAD_REACTORS
330
743
102
}
330
743
100
AcDbXrecord
280
     1
102
RTVSPost2010Prop28
280
     0
102
RTVSPost2010PropOp28
 70
     1
102
RTVSPost2010Prop29
280
     1
102
RTVSPost2010PropOp29
 70
     1
102
RTVSPost2010Prop30
280
     1
102
RTVSPost2010PropOp30
 70
     1
102
RTVSPost2010Prop31
280
     0
102
RTVSPost2010PropOp31
 70
     1
102
RTVSPost2010Prop32
280
     0
102
RTVSPost2010PropOp32
 70
     1
102
RTVSPost2010Prop33
280
     0
102
RTVSPost2010PropOp33
 70
     1
102
RTVSPost2010Prop34
280
     0
102
RTVSPost2010PropOp34
 70
     1
102
RTVSPost2010Prop35
280
     0
102
RTVSPost2010PropOp35
 70
     1
102
RTVSPost2010Prop36
280
     0
102
RTVSPost2010PropOp36
 70
     1
102
RTVSPost2010Prop37
 90
       50
102
RTVSPost2010PropOp37
 70
     1
102
RTVSPost2010Prop38
140
0.0
102
RTVSPost2010PropOp38
 70
     1
102
RTVSPost2010Prop39
140
1.0
102
RTVSPost2010PropOp39
 70
     1
102
RTVSPost2010Prop40
 90
        0
102
RTVSPost2010PropOp40
 70
     1
102
RTVSPost2010Prop41ColorIndex
 90
       18
102
RTVSPost2010Prop41ColorRGB
 90
        0
102
RTVSPost2010PropOp41
 70
     1
102
RTVSPost2010Prop42
 90
       50
102
RTVSPost2010PropOp42
 70
     1
102
RTVSPost2010Prop43
 90
        3
102
RTVSPost2010PropOp43
 70
     1
102
RTVSPost2010Prop44ColorIndex
 90
        5
102
RTVSPost2010Prop44ColorRGB
 90
      255
102
RTVSPost2010PropOp44
 70
     1
102
RTVSPost2010Prop45
280
     0
102
RTVSPost2010PropOp45
 70
     1
102
RTVSPost2010Prop46
 90
       50
102
RTVSPost2010PropOp46
 70
     1
102
RTVSPost2010Prop47
 90
       50
102
RTVSPost2010PropOp47
 70
     1
102
RTVSPost2010Prop48
 90
       50
102
RTVSPost2010PropOp48
 70
     1
102
RTVSPost2010Prop49
280
     0
102
RTVSPost2010PropOp49
 70
     1
102
RTVSPost2010Prop50
 90
       50
102
RTVSPost2010PropOp50
 70
     1
102
RTVSPost2010Prop51ColorIndex
 90
      256
102
RTVSPost2010Prop51ColorRGB
 90
-16777216
102
RTVSPost2010PropOp51
 70
     0
102
RTVSPost2010Prop52
140
1.0
102
RTVSPost2010PropOp52
 70
     0
102
RTVSPost2010Prop53
 90
        2
102
RTVSPost2010PropOp53
 70
     1
102
RTVSPost2010Prop54
  1
strokes_ogs.tif
102
RTVSPost2010PropOp54
 70
     1
102
RTVSPost2010Prop55
280
     0
102
RTVSPost2010PropOp55
 70
     1
102
RTVSPost2010Prop56
140
1.0
102
RTVSPost2010PropOp56
 70
     1
102
RTVSPost2010Prop57
140
1.0
102
RTVSPost2010PropOp57
 70
     1
102
RTVSPropertyOp0
 70
     1
102
RTVSPropertyOp1
 70
     1
102
RTVSPropertyOp2
 70
     1
102
RTVSPropertyOp3
 70
     1
102
RTVSPropertyOp4
 70
     1
102
RTVSPropertyOp5
 70
     1
102
RTVSPropertyOp6
 70
     1
102
RTVSPropertyOp7
 70
     1
102
RTVSPropertyOp8
 70
     1
102
RTVSPropertyOp9
 70
     1
102
RTVSPropertyOp10
 70
     1
102
RTVSPropertyOp11
 70
     1
102
RTVSPropertyOp12
 70
     1
102
RTVSPropertyOp13
 70
     1
102
RTVSPropertyOp14
 70
     1
102
RTVSPropertyOp15
 70
     1
102
RTVSPropertyOp16
 70
     1
102
RTVSPropertyOp17
 70
     1
102
RTVSPropertyOp18
 70
     1
102
RTVSPropertyOp19
 70
     1
102
RTVSPropertyOp20
 70
     1
102
RTVSPropertyOp21
 70
     1
102
RTVSPropertyOp22
 70
     1
102
RTVSPropertyOp23
 70
     1
102
RTVSPropertyOp24
 70
     1
102
RTVSPropertyOp25
 70
     1
102
RTVSPropertyOp26
 70
     1
102
RTVSPropertyOp27
 70
     1
102
RTVSPropertyOp28
 70
     1
102
RTVSPropertyOp29
 70
     1
102
RTVSPropertyOp30
 70
     1
102
RTVSPropertyOp31
 70
     1
102
RTVSPropertyOp32
 70
     1
102
RTVSPropertyOp33
 70
     1
102
RTVSPropertyOp34
 70
     1
102
RTVSPropertyOp35
 70
     1
102
RTVSPropertyOp36
 70
     1
102
RTVSPropertyOp37
 70
     1
102
RTVSPropertyOp38
 70
     1
102
RTVSPropertyOp39
 70
     1
102
RTVSPropertyOp40
 70
     1
102
RTVSPropertyOp41
 70
     1
102
RTVSPropertyOp42
 70
     1
102
RTVSPropertyOp43
 70
     1
102
RTVSPropertyOp44
 70
     1
102
RTVSPropertyOp45
 70
     1
102
RTVSPropertyOp46
 70
     1
102
RTVSPropertyOp47
 70
     1
102
RTVSPropertyOp48
 70
     1
102
RTVSPropertyOp49
 70
     1
102
RTVSPropertyOp50
 70
     1
102
RTVSPropertyOp51
 70
     0
102
RTVSPropertyOp52
 70
     0
102
RTVSPropertyOp53
 70
     1
102
RTVSPropertyOp54
 70
     1
102
RTVSPropertyOp55
 70
     1
102
RTVSPropertyOp56
 70
     1
102
RTVSPropertyOp57
 70
     1
102
RTVSPropertyOp58
 70
     1
102
RTVSPropertyOp59
 70
     1
102
RTVSPropertyOp60
 70
     1
102
RTVSPropertyOp61
 70
     1
102
RTVSPropertyOp62
 70
     1
  0
XRECORD
  5
74C
102
{ACAD_REACTORS
330
74B
102
}
330
74B
100
AcDbXrecord
280
     1
102
RTVSPost2010Prop28
280
     0
102
RTVSPost2010PropOp28
 70
     1
102
RTVSPost2010Prop29
280
     1
102
RTVSPost2010PropOp29
 70
     1
102
RTVSPost2010Prop30
280
     1
102
RTVSPost2010PropOp30
 70
     1
102
RTVSPost2010Prop31
280
     0
102
RTVSPost2010PropOp31
 70
     1
102
RTVSPost2010Prop32
280
     0
102
RTVSPost2010PropOp32
 70
     1
102
RTVSPost2010Prop33
280
     0
102
RTVSPost2010PropOp33
 70
     1
102
RTVSPost2010Prop34
280
     0
102
RTVSPost2010PropOp34
 70
     1
102
RTVSPost2010Prop35
280
     0
102
RTVSPost2010PropOp35
 70
     1
102
RTVSPost2010Prop36
280
     0
102
RTVSPost2010PropOp36
 70
     1
102
RTVSPost2010Prop37
 90
       50
102
RTVSPost2010PropOp37
 70
     1
102
RTVSPost2010Prop38
140
0.0
102
RTVSPost2010PropOp38
 70
     1
102
RTVSPost2010Prop39
140
1.0
102
RTVSPost2010PropOp39
 70
     1
102
RTVSPost2010Prop40
 90
        0
102
RTVSPost2010PropOp40
 70
     1
102
RTVSPost2010Prop41ColorIndex
 90
       18
102
RTVSPost2010Prop41ColorRGB
 90
        0
102
RTVSPost2010PropOp41
 70
     1
102
RTVSPost2010Prop42
 90
       50
102
RTVSPost2010PropOp42
 70
     1
102
RTVSPost2010Prop43
 90
        3
102
RTVSPost2010PropOp43
 70
     1
102
RTVSPost2010Prop44ColorIndex
 90
        5
102
RTVSPost2010Prop44ColorRGB
 90
      255
102
RTVSPost2010PropOp44
 70
     1
102
RTVSPost2010Prop45
280
     0
102
RTVSPost2010PropOp45
 70
     1
102
RTVSPost2010Prop46
 90
       50
102
RTVSPost2010PropOp46
 70
     1
102
RTVSPost2010Prop47
 90
       50
102
RTVSPost2010PropOp47
 70
     1
102
RTVSPost2010Prop48
 90
       50
102
RTVSPost2010PropOp48
 70
     1
102
RTVSPost2010Prop49
280
     0
102
RTVSPost2010PropOp49
 70
     1
102
RTVSPost2010Prop50
 90
       50
102
RTVSPost2010PropOp50
 70
     1
102
RTVSPost2010Prop51ColorIndex
 90
      256
102
RTVSPost2010Prop51ColorRGB
 90
-16777216
102
RTVSPost2010PropOp51
 70
     0
102
RTVSPost2010Prop52
140
1.0
102
RTVSPost2010PropOp52
 70
     0
102
RTVSPost2010Prop53
 90
        2
102
RTVSPost2010PropOp53
 70
     1
102
RTVSPost2010Prop54
  1
strokes_ogs.tif
102
RTVSPost2010PropOp54
 70
     1
102
RTVSPost2010Prop55
280
     0
102
RTVSPost2010PropOp55
 70
     1
102
RTVSPost2010Prop56
140
1.0
102
RTVSPost2010PropOp56
 70
     1
102
RTVSPost2010Prop57
140
1.0
102
RTVSPost2010PropOp57
 70
     1
102
RTVSPropertyOp0
 70
     1
102
RTVSPropertyOp1
 70
     1
102
RTVSPropertyOp2
 70
     1
102
RTVSPropertyOp3
 70
     1
102
RTVSPropertyOp4
 70
     1
102
RTVSPropertyOp5
 70
     1
102
RTVSPropertyOp6
 70
     1
102
RTVSPropertyOp7
 70
     1
102
RTVSPropertyOp8
 70
     1
102
RTVSPropertyOp9
 70
     1
102
RTVSPropertyOp10
 70
     1
102
RTVSPropertyOp11
 70
     1
102
RTVSPropertyOp12
 70
     1
102
RTVSPropertyOp13
 70
     1
102
RTVSPropertyOp14
 70
     1
102
RTVSPropertyOp15
 70
     1
102
RTVSPropertyOp16
 70
     1
102
RTVSPropertyOp17
 70
     1
102
RTVSPropertyOp18
 70
     1
102
RTVSPropertyOp19
 70
     1
102
RTVSPropertyOp20
 70
     1
102
RTVSPropertyOp21
 70
     1
102
RTVSPropertyOp22
 70
     1
102
RTVSPropertyOp23
 70
     1
102
RTVSPropertyOp24
 70
     1
102
RTVSPropertyOp25
 70
     1
102
RTVSPropertyOp26
 70
     1
102
RTVSPropertyOp27
 70
     1
102
RTVSPropertyOp28
 70
     1
102
RTVSPropertyOp29
 70
     1
102
RTVSPropertyOp30
 70
     1
102
RTVSPropertyOp31
 70
     1
102
RTVSPropertyOp32
 70
     1
102
RTVSPropertyOp33
 70
     1
102
RTVSPropertyOp34
 70
     1
102
RTVSPropertyOp35
 70
     1
102
RTVSPropertyOp36
 70
     1
102
RTVSPropertyOp37
 70
     1
102
RTVSPropertyOp38
 70
     1
102
RTVSPropertyOp39
 70
     1
102
RTVSPropertyOp40
 70
     1
102
RTVSPropertyOp41
 70
     1
102
RTVSPropertyOp42
 70
     1
102
RTVSPropertyOp43
 70
     1
102
RTVSPropertyOp44
 70
     1
102
RTVSPropertyOp45
 70
     1
102
RTVSPropertyOp46
 70
     1
102
RTVSPropertyOp47
 70
     1
102
RTVSPropertyOp48
 70
     1
102
RTVSPropertyOp49
 70
     1
102
RTVSPropertyOp50
 70
     1
102
RTVSPropertyOp51
 70
     0
102
RTVSPropertyOp52
 70
     0
102
RTVSPropertyOp53
 70
     1
102
RTVSPropertyOp54
 70
     1
102
RTVSPropertyOp55
 70
     1
102
RTVSPropertyOp56
 70
     1
102
RTVSPropertyOp57
 70
     1
102
RTVSPropertyOp58
 70
     1
102
RTVSPropertyOp59
 70
     1
102
RTVSPropertyOp60
 70
     1
102
RTVSPropertyOp61
 70
     1
102
RTVSPropertyOp62
 70
     1
  0
XRECORD
  5
73A
102
{ACAD_REACTORS
330
739
102
}
330
739
100
AcDbXrecord
280
     1
102
RTVSPost2010Prop28
280
     0
102
RTVSPost2010PropOp28
 70
     1
102
RTVSPost2010Prop29
280
     1
102
RTVSPost2010PropOp29
 70
     1
102
RTVSPost2010Prop30
280
     1
102
RTVSPost2010PropOp30
 70
     1
102
RTVSPost2010Prop31
280
     0
102
RTVSPost2010PropOp31
 70
     1
102
RTVSPost2010Prop32
280
     0
102
RTVSPost2010PropOp32
 70
     1
102
RTVSPost2010Prop33
280
     0
102
RTVSPost2010PropOp33
 70
     1
102
RTVSPost2010Prop34
280
     0
102
RTVSPost2010PropOp34
 70
     1
102
RTVSPost2010Prop35
280
     0
102
RTVSPost2010PropOp35
 70
     1
102
RTVSPost2010Prop36
280
     0
102
RTVSPost2010PropOp36
 70
     1
102
RTVSPost2010Prop37
 90
       50
102
RTVSPost2010PropOp37
 70
     1
102
RTVSPost2010Prop38
140
0.0
102
RTVSPost2010PropOp38
 70
     1
102
RTVSPost2010Prop39
140
1.0
102
RTVSPost2010PropOp39
 70
     1
102
RTVSPost2010Prop40
 90
        0
102
RTVSPost2010PropOp40
 70
     1
102
RTVSPost2010Prop41ColorIndex
 90
       18
102
RTVSPost2010Prop41ColorRGB
 90
        0
102
RTVSPost2010PropOp41
 70
     1
102
RTVSPost2010Prop42
 90
       50
102
RTVSPost2010PropOp42
 70
     1
102
RTVSPost2010Prop43
 90
        3
102
RTVSPost2010PropOp43
 70
     1
102
RTVSPost2010Prop44ColorIndex
 90
        5
102
RTVSPost2010Prop44ColorRGB
 90
      255
102
RTVSPost2010PropOp44
 70
     1
102
RTVSPost2010Prop45
280
     0
102
RTVSPost2010PropOp45
 70
     1
102
RTVSPost2010Prop46
 90
       50
102
RTVSPost2010PropOp46
 70
     1
102
RTVSPost2010Prop47
 90
       50
102
RTVSPost2010PropOp47
 70
     1
102
RTVSPost2010Prop48
 90
       50
102
RTVSPost2010PropOp48
 70
     1
102
RTVSPost2010Prop49
280
     0
102
RTVSPost2010PropOp49
 70
     1
102
RTVSPost2010Prop50
 90
       50
102
RTVSPost2010PropOp50
 70
     1
102
RTVSPost2010Prop51ColorIndex
 90
      256
102
RTVSPost2010Prop51ColorRGB
 90
-16777216
102
RTVSPost2010PropOp51
 70
     0
102
RTVSPost2010Prop52
140
1.0
102
RTVSPost2010PropOp52
 70
     0
102
RTVSPost2010Prop53
 90
        2
102
RTVSPost2010PropOp53
 70
     1
102
RTVSPost2010Prop54
  1
strokes_ogs.tif
102
RTVSPost2010PropOp54
 70
     1
102
RTVSPost2010Prop55
280
     0
102
RTVSPost2010PropOp55
 70
     1
102
RTVSPost2010Prop56
140
1.0
102
RTVSPost2010PropOp56
 70
     1
102
RTVSPost2010Prop57
140
1.0
102
RTVSPost2010PropOp57
 70
     1
102
RTVSPropertyOp0
 70
     1
102
RTVSPropertyOp1
 70
     1
102
RTVSPropertyOp2
 70
     1
102
RTVSPropertyOp3
 70
     1
102
RTVSPropertyOp4
 70
     1
102
RTVSPropertyOp5
 70
     1
102
RTVSPropertyOp6
 70
     1
102
RTVSPropertyOp7
 70
     1
102
RTVSPropertyOp8
 70
     1
102
RTVSPropertyOp9
 70
     1
102
RTVSPropertyOp10
 70
     1
102
RTVSPropertyOp11
 70
     1
102
RTVSPropertyOp12
 70
     1
102
RTVSPropertyOp13
 70
     1
102
RTVSPropertyOp14
 70
     1
102
RTVSPropertyOp15
 70
     1
102
RTVSPropertyOp16
 70
     1
102
RTVSPropertyOp17
 70
     1
102
RTVSPropertyOp18
 70
     1
102
RTVSPropertyOp19
 70
     1
102
RTVSPropertyOp20
 70
     1
102
RTVSPropertyOp21
 70
     1
102
RTVSPropertyOp22
 70
     1
102
RTVSPropertyOp23
 70
     1
102
RTVSPropertyOp24
 70
     1
102
RTVSPropertyOp25
 70
     1
102
RTVSPropertyOp26
 70
     1
102
RTVSPropertyOp27
 70
     1
102
RTVSPropertyOp28
 70
     1
102
RTVSPropertyOp29
 70
     1
102
RTVSPropertyOp30
 70
     1
102
RTVSPropertyOp31
 70
     1
102
RTVSPropertyOp32
 70
     1
102
RTVSPropertyOp33
 70
     1
102
RTVSPropertyOp34
 70
     1
102
RTVSPropertyOp35
 70
     1
102
RTVSPropertyOp36
 70
     1
102
RTVSPropertyOp37
 70
     1
102
RTVSPropertyOp38
 70
     1
102
RTVSPropertyOp39
 70
     1
102
RTVSPropertyOp40
 70
     1
102
RTVSPropertyOp41
 70
     1
102
RTVSPropertyOp42
 70
     1
102
RTVSPropertyOp43
 70
     1
102
RTVSPropertyOp44
 70
     1
102
RTVSPropertyOp45
 70
     1
102
RTVSPropertyOp46
 70
     1
102
RTVSPropertyOp47
 70
     1
102
RTVSPropertyOp48
 70
     1
102
RTVSPropertyOp49
 70
     1
102
RTVSPropertyOp50
 70
     1
102
RTVSPropertyOp51
 70
     0
102
RTVSPropertyOp52
 70
     0
102
RTVSPropertyOp53
 70
     1
102
RTVSPropertyOp54
 70
     1
102
RTVSPropertyOp55
 70
     1
102
RTVSPropertyOp56
 70
     1
102
RTVSPropertyOp57
 70
     1
102
RTVSPropertyOp58
 70
     1
102
RTVSPropertyOp59
 70
     1
102
RTVSPropertyOp60
 70
     1
102
RTVSPropertyOp61
 70
     1
102
RTVSPropertyOp62
 70
     1
  0
XRECORD
  5
758
102
{ACAD_REACTORS
330
757
102
}
330
757
100
AcDbXrecord
280
     1
102
RTVSPost2010Prop28
280
     0
102
RTVSPost2010PropOp28
 70
     1
102
RTVSPost2010Prop29
280
     1
102
RTVSPost2010PropOp29
 70
     1
102
RTVSPost2010Prop30
280
     1
102
RTVSPost2010PropOp30
 70
     1
102
RTVSPost2010Prop31
280
     0
102
RTVSPost2010PropOp31
 70
     1
102
RTVSPost2010Prop32
280
     0
102
RTVSPost2010PropOp32
 70
     1
102
RTVSPost2010Prop33
280
     0
102
RTVSPost2010PropOp33
 70
     1
102
RTVSPost2010Prop34
280
     0
102
RTVSPost2010PropOp34
 70
     1
102
RTVSPost2010Prop35
280
     0
102
RTVSPost2010PropOp35
 70
     1
102
RTVSPost2010Prop36
280
     0
102
RTVSPost2010PropOp36
 70
     1
102
RTVSPost2010Prop37
 90
       50
102
RTVSPost2010PropOp37
 70
     1
102
RTVSPost2010Prop38
140
0.0
102
RTVSPost2010PropOp38
 70
     1
102
RTVSPost2010Prop39
140
1.0
102
RTVSPost2010PropOp39
 70
     1
102
RTVSPost2010Prop40
 90
        0
102
RTVSPost2010PropOp40
 70
     1
102
RTVSPost2010Prop41ColorIndex
 90
       18
102
RTVSPost2010Prop41ColorRGB
 90
        0
102
RTVSPost2010PropOp41
 70
     1
102
RTVSPost2010Prop42
 90
       50
102
RTVSPost2010PropOp42
 70
     1
102
RTVSPost2010Prop43
 90
        3
102
RTVSPost2010PropOp43
 70
     1
102
RTVSPost2010Prop44ColorIndex
 90
        5
102
RTVSPost2010Prop44ColorRGB
 90
      255
102
RTVSPost2010PropOp44
 70
     1
102
RTVSPost2010Prop45
280
     0
102
RTVSPost2010PropOp45
 70
     1
102
RTVSPost2010Prop46
 90
       50
102
RTVSPost2010PropOp46
 70
     1
102
RTVSPost2010Prop47
 90
       50
102
RTVSPost2010PropOp47
 70
     1
102
RTVSPost2010Prop48
 90
       50
102
RTVSPost2010PropOp48
 70
     1
102
RTVSPost2010Prop49
280
     0
102
RTVSPost2010PropOp49
 70
     1
102
RTVSPost2010Prop50
 90
       50
102
RTVSPost2010PropOp50
 70
     1
102
RTVSPost2010Prop51ColorIndex
 90
      256
102
RTVSPost2010Prop51ColorRGB
 90
-16777216
102
RTVSPost2010PropOp51
 70
     0
102
RTVSPost2010Prop52
140
1.0
102
RTVSPost2010PropOp52
 70
     0
102
RTVSPost2010Prop53
 90
        2
102
RTVSPost2010PropOp53
 70
     1
102
RTVSPost2010Prop54
  1
strokes_ogs.tif
102
RTVSPost2010PropOp54
 70
     1
102
RTVSPost2010Prop55
280
     0
102
RTVSPost2010PropOp55
 70
     1
102
RTVSPost2010Prop56
140
1.0
102
RTVSPost2010PropOp56
 70
     1
102
RTVSPost2010Prop57
140
1.0
102
RTVSPost2010PropOp57
 70
     1
102
RTVSPropertyOp0
 70
     1
102
RTVSPropertyOp1
 70
     1
102
RTVSPropertyOp2
 70
     1
102
RTVSPropertyOp3
 70
     1
102
RTVSPropertyOp4
 70
     1
102
RTVSPropertyOp5
 70
     1
102
RTVSPropertyOp6
 70
     1
102
RTVSPropertyOp7
 70
     1
102
RTVSPropertyOp8
 70
     1
102
RTVSPropertyOp9
 70
     1
102
RTVSPropertyOp10
 70
     1
102
RTVSPropertyOp11
 70
     1
102
RTVSPropertyOp12
 70
     1
102
RTVSPropertyOp13
 70
     1
102
RTVSPropertyOp14
 70
     1
102
RTVSPropertyOp15
 70
     1
102
RTVSPropertyOp16
 70
     1
102
RTVSPropertyOp17
 70
     1
102
RTVSPropertyOp18
 70
     1
102
RTVSPropertyOp19
 70
     1
102
RTVSPropertyOp20
 70
     1
102
RTVSPropertyOp21
 70
     1
102
RTVSPropertyOp22
 70
     1
102
RTVSPropertyOp23
 70
     1
102
RTVSPropertyOp24
 70
     1
102
RTVSPropertyOp25
 70
     1
102
RTVSPropertyOp26
 70
     1
102
RTVSPropertyOp27
 70
     1
102
RTVSPropertyOp28
 70
     1
102
RTVSPropertyOp29
 70
     1
102
RTVSPropertyOp30
 70
     1
102
RTVSPropertyOp31
 70
     1
102
RTVSPropertyOp32
 70
     1
102
RTVSPropertyOp33
 70
     1
102
RTVSPropertyOp34
 70
     1
102
RTVSPropertyOp35
 70
     1
102
RTVSPropertyOp36
 70
     1
102
RTVSPropertyOp37
 70
     1
102
RTVSPropertyOp38
 70
     1
102
RTVSPropertyOp39
 70
     1
102
RTVSPropertyOp40
 70
     1
102
RTVSPropertyOp41
 70
     1
102
RTVSPropertyOp42
 70
     1
102
RTVSPropertyOp43
 70
     1
102
RTVSPropertyOp44
 70
     1
102
RTVSPropertyOp45
 70
     1
102
RTVSPropertyOp46
 70
     1
102
RTVSPropertyOp47
 70
     1
102
RTVSPropertyOp48
 70
     1
102
RTVSPropertyOp49
 70
     1
102
RTVSPropertyOp50
 70
     1
102
RTVSPropertyOp51
 70
     0
102
RTVSPropertyOp52
 70
     0
102
RTVSPropertyOp53
 70
     1
102
RTVSPropertyOp54
 70
     1
102
RTVSPropertyOp55
 70
     1
102
RTVSPropertyOp56
 70
     1
102
RTVSPropertyOp57
 70
     1
102
RTVSPropertyOp58
 70
     1
102
RTVSPropertyOp59
 70
     1
102
RTVSPropertyOp60
 70
     1
102
RTVSPropertyOp61
 70
     1
102
RTVSPropertyOp62
 70
     1
  0
XRECORD
  5
75C
102
{ACAD_REACTORS
330
75B
102
}
330
75B
100
AcDbXrecord
280
     1
102
RTVSPost2010Prop28
280
     0
102
RTVSPost2010PropOp28
 70
     1
102
RTVSPost2010Prop29
280
     1
102
RTVSPost2010PropOp29
 70
     1
102
RTVSPost2010Prop30
280
     1
102
RTVSPost2010PropOp30
 70
     1
102
RTVSPost2010Prop31
280
     0
102
RTVSPost2010PropOp31
 70
     1
102
RTVSPost2010Prop32
280
     0
102
RTVSPost2010PropOp32
 70
     1
102
RTVSPost2010Prop33
280
     0
102
RTVSPost2010PropOp33
 70
     1
102
RTVSPost2010Prop34
280
     0
102
RTVSPost2010PropOp34
 70
     1
102
RTVSPost2010Prop35
280
     0
102
RTVSPost2010PropOp35
 70
     1
102
RTVSPost2010Prop36
280
     0
102
RTVSPost2010PropOp36
 70
     1
102
RTVSPost2010Prop37
 90
       50
102
RTVSPost2010PropOp37
 70
     1
102
RTVSPost2010Prop38
140
0.0
102
RTVSPost2010PropOp38
 70
     1
102
RTVSPost2010Prop39
140
1.0
102
RTVSPost2010PropOp39
 70
     1
102
RTVSPost2010Prop40
 90
        0
102
RTVSPost2010PropOp40
 70
     1
102
RTVSPost2010Prop41ColorIndex
 90
       18
102
RTVSPost2010Prop41ColorRGB
 90
        0
102
RTVSPost2010PropOp41
 70
     1
102
RTVSPost2010Prop42
 90
       50
102
RTVSPost2010PropOp42
 70
     1
102
RTVSPost2010Prop43
 90
        3
102
RTVSPost2010PropOp43
 70
     1
102
RTVSPost2010Prop44ColorIndex
 90
        5
102
RTVSPost2010Prop44ColorRGB
 90
      255
102
RTVSPost2010PropOp44
 70
     1
102
RTVSPost2010Prop45
280
     0
102
RTVSPost2010PropOp45
 70
     1
102
RTVSPost2010Prop46
 90
       50
102
RTVSPost2010PropOp46
 70
     1
102
RTVSPost2010Prop47
 90
       50
102
RTVSPost2010PropOp47
 70
     1
102
RTVSPost2010Prop48
 90
       50
102
RTVSPost2010PropOp48
 70
     1
102
RTVSPost2010Prop49
280
     0
102
RTVSPost2010PropOp49
 70
     1
102
RTVSPost2010Prop50
 90
       50
102
RTVSPost2010PropOp50
 70
     1
102
RTVSPost2010Prop51ColorIndex
 90
      256
102
RTVSPost2010Prop51ColorRGB
 90
-16777216
102
RTVSPost2010PropOp51
 70
     0
102
RTVSPost2010Prop52
140
1.0
102
RTVSPost2010PropOp52
 70
     0
102
RTVSPost2010Prop53
 90
        2
102
RTVSPost2010PropOp53
 70
     1
102
RTVSPost2010Prop54
  1
strokes_ogs.tif
102
RTVSPost2010PropOp54
 70
     1
102
RTVSPost2010Prop55
280
     0
102
RTVSPost2010PropOp55
 70
     1
102
RTVSPost2010Prop56
140
1.0
102
RTVSPost2010PropOp56
 70
     1
102
RTVSPost2010Prop57
140
1.0
102
RTVSPost2010PropOp57
 70
     1
102
RTVSPropertyOp0
 70
     1
102
RTVSPropertyOp1
 70
     1
102
RTVSPropertyOp2
 70
     1
102
RTVSPropertyOp3
 70
     1
102
RTVSPropertyOp4
 70
     1
102
RTVSPropertyOp5
 70
     1
102
RTVSPropertyOp6
 70
     1
102
RTVSPropertyOp7
 70
     1
102
RTVSPropertyOp8
 70
     1
102
RTVSPropertyOp9
 70
     1
102
RTVSPropertyOp10
 70
     1
102
RTVSPropertyOp11
 70
     1
102
RTVSPropertyOp12
 70
     1
102
RTVSPropertyOp13
 70
     1
102
RTVSPropertyOp14
 70
     1
102
RTVSPropertyOp15
 70
     1
102
RTVSPropertyOp16
 70
     1
102
RTVSPropertyOp17
 70
     1
102
RTVSPropertyOp18
 70
     1
102
RTVSPropertyOp19
 70
     1
102
RTVSPropertyOp20
 70
     1
102
RTVSPropertyOp21
 70
     1
102
RTVSPropertyOp22
 70
     1
102
RTVSPropertyOp23
 70
     1
102
RTVSPropertyOp24
 70
     1
102
RTVSPropertyOp25
 70
     1
102
RTVSPropertyOp26
 70
     1
102
RTVSPropertyOp27
 70
     1
102
RTVSPropertyOp28
 70
     1
102
RTVSPropertyOp29
 70
     1
102
RTVSPropertyOp30
 70
     1
102
RTVSPropertyOp31
 70
     1
102
RTVSPropertyOp32
 70
     1
102
RTVSPropertyOp33
 70
     1
102
RTVSPropertyOp34
 70
     1
102
RTVSPropertyOp35
 70
     1
102
RTVSPropertyOp36
 70
     1
102
RTVSPropertyOp37
 70
     1
102
RTVSPropertyOp38
 70
     1
102
RTVSPropertyOp39
 70
     1
102
RTVSPropertyOp40
 70
     1
102
RTVSPropertyOp41
 70
     1
102
RTVSPropertyOp42
 70
     1
102
RTVSPropertyOp43
 70
     1
102
RTVSPropertyOp44
 70
     1
102
RTVSPropertyOp45
 70
     1
102
RTVSPropertyOp46
 70
     1
102
RTVSPropertyOp47
 70
     1
102
RTVSPropertyOp48
 70
     1
102
RTVSPropertyOp49
 70
     1
102
RTVSPropertyOp50
 70
     1
102
RTVSPropertyOp51
 70
     0
102
RTVSPropertyOp52
 70
     0
102
RTVSPropertyOp53
 70
     1
102
RTVSPropertyOp54
 70
     1
102
RTVSPropertyOp55
 70
     1
102
RTVSPropertyOp56
 70
     1
102
RTVSPropertyOp57
 70
     1
102
RTVSPropertyOp58
 70
     1
102
RTVSPropertyOp59
 70
     1
102
RTVSPropertyOp60
 70
     1
102
RTVSPropertyOp61
 70
     1
102
RTVSPropertyOp62
 70
     1
  0
XRECORD
  5
756
102
{ACAD_REACTORS
330
755
102
}
330
755
100
AcDbXrecord
280
     1
102
RTVSPost2010Prop28
280
     0
102
RTVSPost2010PropOp28
 70
     1
102
RTVSPost2010Prop29
280
     1
102
RTVSPost2010PropOp29
 70
     1
102
RTVSPost2010Prop30
280
     1
102
RTVSPost2010PropOp30
 70
     1
102
RTVSPost2010Prop31
280
     0
102
RTVSPost2010PropOp31
 70
     1
102
RTVSPost2010Prop32
280
     0
102
RTVSPost2010PropOp32
 70
     1
102
RTVSPost2010Prop33
280
     0
102
RTVSPost2010PropOp33
 70
     1
102
RTVSPost2010Prop34
280
     0
102
RTVSPost2010PropOp34
 70
     1
102
RTVSPost2010Prop35
280
     0
102
RTVSPost2010PropOp35
 70
     1
102
RTVSPost2010Prop36
280
     0
102
RTVSPost2010PropOp36
 70
     1
102
RTVSPost2010Prop37
 90
       50
102
RTVSPost2010PropOp37
 70
     1
102
RTVSPost2010Prop38
140
0.0
102
RTVSPost2010PropOp38
 70
     1
102
RTVSPost2010Prop39
140
1.0
102
RTVSPost2010PropOp39
 70
     1
102
RTVSPost2010Prop40
 90
        0
102
RTVSPost2010PropOp40
 70
     1
102
RTVSPost2010Prop41ColorIndex
 90
       18
102
RTVSPost2010Prop41ColorRGB
 90
        0
102
RTVSPost2010PropOp41
 70
     1
102
RTVSPost2010Prop42
 90
       50
102
RTVSPost2010PropOp42
 70
     1
102
RTVSPost2010Prop43
 90
        3
102
RTVSPost2010PropOp43
 70
     1
102
RTVSPost2010Prop44ColorIndex
 90
        5
102
RTVSPost2010Prop44ColorRGB
 90
      255
102
RTVSPost2010PropOp44
 70
     1
102
RTVSPost2010Prop45
280
     0
102
RTVSPost2010PropOp45
 70
     1
102
RTVSPost2010Prop46
 90
       50
102
RTVSPost2010PropOp46
 70
     1
102
RTVSPost2010Prop47
 90
       50
102
RTVSPost2010PropOp47
 70
     1
102
RTVSPost2010Prop48
 90
       50
102
RTVSPost2010PropOp48
 70
     1
102
RTVSPost2010Prop49
280
     0
102
RTVSPost2010PropOp49
 70
     1
102
RTVSPost2010Prop50
 90
       50
102
RTVSPost2010PropOp50
 70
     1
102
RTVSPost2010Prop51ColorIndex
 90
      256
102
RTVSPost2010Prop51ColorRGB
 90
-16777216
102
RTVSPost2010PropOp51
 70
     0
102
RTVSPost2010Prop52
140
1.0
102
RTVSPost2010PropOp52
 70
     0
102
RTVSPost2010Prop53
 90
        2
102
RTVSPost2010PropOp53
 70
     1
102
RTVSPost2010Prop54
  1
strokes_ogs.tif
102
RTVSPost2010PropOp54
 70
     1
102
RTVSPost2010Prop55
280
     0
102
RTVSPost2010PropOp55
 70
     1
102
RTVSPost2010Prop56
140
1.0
102
RTVSPost2010PropOp56
 70
     1
102
RTVSPost2010Prop57
140
1.0
102
RTVSPost2010PropOp57
 70
     1
102
RTVSPropertyOp0
 70
     1
102
RTVSPropertyOp1
 70
     1
102
RTVSPropertyOp2
 70
     1
102
RTVSPropertyOp3
 70
     1
102
RTVSPropertyOp4
 70
     1
102
RTVSPropertyOp5
 70
     1
102
RTVSPropertyOp6
 70
     1
102
RTVSPropertyOp7
 70
     1
102
RTVSPropertyOp8
 70
     1
102
RTVSPropertyOp9
 70
     1
102
RTVSPropertyOp10
 70
     1
102
RTVSPropertyOp11
 70
     1
102
RTVSPropertyOp12
 70
     1
102
RTVSPropertyOp13
 70
     1
102
RTVSPropertyOp14
 70
     1
102
RTVSPropertyOp15
 70
     1
102
RTVSPropertyOp16
 70
     1
102
RTVSPropertyOp17
 70
     1
102
RTVSPropertyOp18
 70
     1
102
RTVSPropertyOp19
 70
     1
102
RTVSPropertyOp20
 70
     1
102
RTVSPropertyOp21
 70
     1
102
RTVSPropertyOp22
 70
     1
102
RTVSPropertyOp23
 70
     1
102
RTVSPropertyOp24
 70
     1
102
RTVSPropertyOp25
 70
     1
102
RTVSPropertyOp26
 70
     1
102
RTVSPropertyOp27
 70
     1
102
RTVSPropertyOp28
 70
     1
102
RTVSPropertyOp29
 70
     1
102
RTVSPropertyOp30
 70
     1
102
RTVSPropertyOp31
 70
     1
102
RTVSPropertyOp32
 70
     1
102
RTVSPropertyOp33
 70
     1
102
RTVSPropertyOp34
 70
     1
102
RTVSPropertyOp35
 70
     1
102
RTVSPropertyOp36
 70
     1
102
RTVSPropertyOp37
 70
     1
102
RTVSPropertyOp38
 70
     1
102
RTVSPropertyOp39
 70
     1
102
RTVSPropertyOp40
 70
     1
102
RTVSPropertyOp41
 70
     1
102
RTVSPropertyOp42
 70
     1
102
RTVSPropertyOp43
 70
     1
102
RTVSPropertyOp44
 70
     1
102
RTVSPropertyOp45
 70
     1
102
RTVSPropertyOp46
 70
     1
102
RTVSPropertyOp47
 70
     1
102
RTVSPropertyOp48
 70
     1
102
RTVSPropertyOp49
 70
     1
102
RTVSPropertyOp50
 70
     1
102
RTVSPropertyOp51
 70
     0
102
RTVSPropertyOp52
 70
     0
102
RTVSPropertyOp53
 70
     1
102
RTVSPropertyOp54
 70
     1
102
RTVSPropertyOp55
 70
     1
102
RTVSPropertyOp56
 70
     1
102
RTVSPropertyOp57
 70
     1
102
RTVSPropertyOp58
 70
     1
102
RTVSPropertyOp59
 70
     1
102
RTVSPropertyOp60
 70
     1
102
RTVSPropertyOp61
 70
     1
102
RTVSPropertyOp62
 70
     1
  0
XRECORD
  5
75A
102
{ACAD_REACTORS
330
759
102
}
330
759
100
AcDbXrecord
280
     1
102
RTVSPost2010Prop28
280
     0
102
RTVSPost2010PropOp28
 70
     1
102
RTVSPost2010Prop29
280
     1
102
RTVSPost2010PropOp29
 70
     1
102
RTVSPost2010Prop30
280
     1
102
RTVSPost2010PropOp30
 70
     1
102
RTVSPost2010Prop31
280
     0
102
RTVSPost2010PropOp31
 70
     1
102
RTVSPost2010Prop32
280
     0
102
RTVSPost2010PropOp32
 70
     1
102
RTVSPost2010Prop33
280
     0
102
RTVSPost2010PropOp33
 70
     1
102
RTVSPost2010Prop34
280
     0
102
RTVSPost2010PropOp34
 70
     1
102
RTVSPost2010Prop35
280
     0
102
RTVSPost2010PropOp35
 70
     1
102
RTVSPost2010Prop36
280
     0
102
RTVSPost2010PropOp36
 70
     1
102
RTVSPost2010Prop37
 90
       50
102
RTVSPost2010PropOp37
 70
     1
102
RTVSPost2010Prop38
140
0.0
102
RTVSPost2010PropOp38
 70
     1
102
RTVSPost2010Prop39
140
1.0
102
RTVSPost2010PropOp39
 70
     1
102
RTVSPost2010Prop40
 90
        0
102
RTVSPost2010PropOp40
 70
     1
102
RTVSPost2010Prop41ColorIndex
 90
       18
102
RTVSPost2010Prop41ColorRGB
 90
        0
102
RTVSPost2010PropOp41
 70
     1
102
RTVSPost2010Prop42
 90
       50
102
RTVSPost2010PropOp42
 70
     1
102
RTVSPost2010Prop43
 90
        3
102
RTVSPost2010PropOp43
 70
     1
102
RTVSPost2010Prop44ColorIndex
 90
        5
102
RTVSPost2010Prop44ColorRGB
 90
      255
102
RTVSPost2010PropOp44
 70
     1
102
RTVSPost2010Prop45
280
     0
102
RTVSPost2010PropOp45
 70
     1
102
RTVSPost2010Prop46
 90
       50
102
RTVSPost2010PropOp46
 70
     1
102
RTVSPost2010Prop47
 90
       50
102
RTVSPost2010PropOp47
 70
     1
102
RTVSPost2010Prop48
 90
       50
102
RTVSPost2010PropOp48
 70
     1
102
RTVSPost2010Prop49
280
     0
102
RTVSPost2010PropOp49
 70
     1
102
RTVSPost2010Prop50
 90
       50
102
RTVSPost2010PropOp50
 70
     1
102
RTVSPost2010Prop51ColorIndex
 90
      256
102
RTVSPost2010Prop51ColorRGB
 90
-16777216
102
RTVSPost2010PropOp51
 70
     0
102
RTVSPost2010Prop52
140
1.0
102
RTVSPost2010PropOp52
 70
     0
102
RTVSPost2010Prop53
 90
        2
102
RTVSPost2010PropOp53
 70
     1
102
RTVSPost2010Prop54
  1
strokes_ogs.tif
102
RTVSPost2010PropOp54
 70
     1
102
RTVSPost2010Prop55
280
     0
102
RTVSPost2010PropOp55
 70
     1
102
RTVSPost2010Prop56
140
1.0
102
RTVSPost2010PropOp56
 70
     1
102
RTVSPost2010Prop57
140
1.0
102
RTVSPost2010PropOp57
 70
     1
102
RTVSPropertyOp0
 70
     1
102
RTVSPropertyOp1
 70
     1
102
RTVSPropertyOp2
 70
     1
102
RTVSPropertyOp3
 70
     1
102
RTVSPropertyOp4
 70
     1
102
RTVSPropertyOp5
 70
     1
102
RTVSPropertyOp6
 70
     1
102
RTVSPropertyOp7
 70
     1
102
RTVSPropertyOp8
 70
     1
102
RTVSPropertyOp9
 70
     1
102
RTVSPropertyOp10
 70
     1
102
RTVSPropertyOp11
 70
     1
102
RTVSPropertyOp12
 70
     1
102
RTVSPropertyOp13
 70
     1
102
RTVSPropertyOp14
 70
     1
102
RTVSPropertyOp15
 70
     1
102
RTVSPropertyOp16
 70
     1
102
RTVSPropertyOp17
 70
     1
102
RTVSPropertyOp18
 70
     1
102
RTVSPropertyOp19
 70
     1
102
RTVSPropertyOp20
 70
     1
102
RTVSPropertyOp21
 70
     1
102
RTVSPropertyOp22
 70
     1
102
RTVSPropertyOp23
 70
     1
102
RTVSPropertyOp24
 70
     1
102
RTVSPropertyOp25
 70
     1
102
RTVSPropertyOp26
 70
     1
102
RTVSPropertyOp27
 70
     1
102
RTVSPropertyOp28
 70
     1
102
RTVSPropertyOp29
 70
     1
102
RTVSPropertyOp30
 70
     1
102
RTVSPropertyOp31
 70
     1
102
RTVSPropertyOp32
 70
     1
102
RTVSPropertyOp33
 70
     1
102
RTVSPropertyOp34
 70
     1
102
RTVSPropertyOp35
 70
     1
102
RTVSPropertyOp36
 70
     1
102
RTVSPropertyOp37
 70
     1
102
RTVSPropertyOp38
 70
     1
102
RTVSPropertyOp39
 70
     1
102
RTVSPropertyOp40
 70
     1
102
RTVSPropertyOp41
 70
     1
102
RTVSPropertyOp42
 70
     1
102
RTVSPropertyOp43
 70
     1
102
RTVSPropertyOp44
 70
     1
102
RTVSPropertyOp45
 70
     1
102
RTVSPropertyOp46
 70
     1
102
RTVSPropertyOp47
 70
     1
102
RTVSPropertyOp48
 70
     1
102
RTVSPropertyOp49
 70
     1
102
RTVSPropertyOp50
 70
     1
102
RTVSPropertyOp51
 70
     0
102
RTVSPropertyOp52
 70
     0
102
RTVSPropertyOp53
 70
     1
102
RTVSPropertyOp54
 70
     1
102
RTVSPropertyOp55
 70
     1
102
RTVSPropertyOp56
 70
     1
102
RTVSPropertyOp57
 70
     1
102
RTVSPropertyOp58
 70
     1
102
RTVSPropertyOp59
 70
     1
102
RTVSPropertyOp60
 70
     1
102
RTVSPropertyOp61
 70
     1
102
RTVSPropertyOp62
 70
     1
  0
XRECORD
  5
750
102
{ACAD_REACTORS
330
74F
102
}
330
74F
100
AcDbXrecord
280
     1
102
RTVSPost2010Prop28
280
     0
102
RTVSPost2010PropOp28
 70
     1
102
RTVSPost2010Prop29
280
     1
102
RTVSPost2010PropOp29
 70
     1
102
RTVSPost2010Prop30
280
     1
102
RTVSPost2010PropOp30
 70
     1
102
RTVSPost2010Prop31
280
     0
102
RTVSPost2010PropOp31
 70
     1
102
RTVSPost2010Prop32
280
     0
102
RTVSPost2010PropOp32
 70
     1
102
RTVSPost2010Prop33
280
     0
102
RTVSPost2010PropOp33
 70
     1
102
RTVSPost2010Prop34
280
     0
102
RTVSPost2010PropOp34
 70
     1
102
RTVSPost2010Prop35
280
     0
102
RTVSPost2010PropOp35
 70
     1
102
RTVSPost2010Prop36
280
     0
102
RTVSPost2010PropOp36
 70
     1
102
RTVSPost2010Prop37
 90
       50
102
RTVSPost2010PropOp37
 70
     1
102
RTVSPost2010Prop38
140
0.0
102
RTVSPost2010PropOp38
 70
     1
102
RTVSPost2010Prop39
140
1.0
102
RTVSPost2010PropOp39
 70
     1
102
RTVSPost2010Prop40
 90
        0
102
RTVSPost2010PropOp40
 70
     1
102
RTVSPost2010Prop41ColorIndex
 90
       18
102
RTVSPost2010Prop41ColorRGB
 90
        0
102
RTVSPost2010PropOp41
 70
     1
102
RTVSPost2010Prop42
 90
       50
102
RTVSPost2010PropOp42
 70
     1
102
RTVSPost2010Prop43
 90
        3
102
RTVSPost2010PropOp43
 70
     1
102
RTVSPost2010Prop44ColorIndex
 90
        5
102
RTVSPost2010Prop44ColorRGB
 90
      255
102
RTVSPost2010PropOp44
 70
     1
102
RTVSPost2010Prop45
280
     0
102
RTVSPost2010PropOp45
 70
     1
102
RTVSPost2010Prop46
 90
       50
102
RTVSPost2010PropOp46
 70
     1
102
RTVSPost2010Prop47
 90
       50
102
RTVSPost2010PropOp47
 70
     1
102
RTVSPost2010Prop48
 90
       50
102
RTVSPost2010PropOp48
 70
     1
102
RTVSPost2010Prop49
280
     0
102
RTVSPost2010PropOp49
 70
     1
102
RTVSPost2010Prop50
 90
       50
102
RTVSPost2010PropOp50
 70
     1
102
RTVSPost2010Prop51ColorIndex
 90
      256
102
RTVSPost2010Prop51ColorRGB
 90
-16777216
102
RTVSPost2010PropOp51
 70
     0
102
RTVSPost2010Prop52
140
1.0
102
RTVSPost2010PropOp52
 70
     0
102
RTVSPost2010Prop53
 90
        2
102
RTVSPost2010PropOp53
 70
     1
102
RTVSPost2010Prop54
  1
strokes_ogs.tif
102
RTVSPost2010PropOp54
 70
     1
102
RTVSPost2010Prop55
280
     0
102
RTVSPost2010PropOp55
 70
     1
102
RTVSPost2010Prop56
140
1.0
102
RTVSPost2010PropOp56
 70
     1
102
RTVSPost2010Prop57
140
1.0
102
RTVSPost2010PropOp57
 70
     1
102
RTVSPropertyOp0
 70
     1
102
RTVSPropertyOp1
 70
     1
102
RTVSPropertyOp2
 70
     1
102
RTVSPropertyOp3
 70
     1
102
RTVSPropertyOp4
 70
     1
102
RTVSPropertyOp5
 70
     1
102
RTVSPropertyOp6
 70
     1
102
RTVSPropertyOp7
 70
     1
102
RTVSPropertyOp8
 70
     1
102
RTVSPropertyOp9
 70
     1
102
RTVSPropertyOp10
 70
     1
102
RTVSPropertyOp11
 70
     1
102
RTVSPropertyOp12
 70
     1
102
RTVSPropertyOp13
 70
     1
102
RTVSPropertyOp14
 70
     1
102
RTVSPropertyOp15
 70
     1
102
RTVSPropertyOp16
 70
     1
102
RTVSPropertyOp17
 70
     1
102
RTVSPropertyOp18
 70
     1
102
RTVSPropertyOp19
 70
     1
102
RTVSPropertyOp20
 70
     1
102
RTVSPropertyOp21
 70
     1
102
RTVSPropertyOp22
 70
     1
102
RTVSPropertyOp23
 70
     1
102
RTVSPropertyOp24
 70
     1
102
RTVSPropertyOp25
 70
     1
102
RTVSPropertyOp26
 70
     1
102
RTVSPropertyOp27
 70
     1
102
RTVSPropertyOp28
 70
     1
102
RTVSPropertyOp29
 70
     1
102
RTVSPropertyOp30
 70
     1
102
RTVSPropertyOp31
 70
     1
102
RTVSPropertyOp32
 70
     1
102
RTVSPropertyOp33
 70
     1
102
RTVSPropertyOp34
 70
     1
102
RTVSPropertyOp35
 70
     1
102
RTVSPropertyOp36
 70
     1
102
RTVSPropertyOp37
 70
     1
102
RTVSPropertyOp38
 70
     1
102
RTVSPropertyOp39
 70
     1
102
RTVSPropertyOp40
 70
     1
102
RTVSPropertyOp41
 70
     1
102
RTVSPropertyOp42
 70
     1
102
RTVSPropertyOp43
 70
     1
102
RTVSPropertyOp44
 70
     1
102
RTVSPropertyOp45
 70
     1
102
RTVSPropertyOp46
 70
     1
102
RTVSPropertyOp47
 70
     1
102
RTVSPropertyOp48
 70
     1
102
RTVSPropertyOp49
 70
     1
102
RTVSPropertyOp50
 70
     1
102
RTVSPropertyOp51
 70
     0
102
RTVSPropertyOp52
 70
     0
102
RTVSPropertyOp53
 70
     1
102
RTVSPropertyOp54
 70
     1
102
RTVSPropertyOp55
 70
     1
102
RTVSPropertyOp56
 70
     1
102
RTVSPropertyOp57
 70
     1
102
RTVSPropertyOp58
 70
     1
102
RTVSPropertyOp59
 70
     1
102
RTVSPropertyOp60
 70
     1
102
RTVSPropertyOp61
 70
     1
102
RTVSPropertyOp62
 70
     1
  0
XRECORD
  5
752
102
{ACAD_REACTORS
330
751
102
}
330
751
100
AcDbXrecord
280
     1
102
RTVSPost2010Prop28
280
     0
102
RTVSPost2010PropOp28
 70
     1
102
RTVSPost2010Prop29
280
     1
102
RTVSPost2010PropOp29
 70
     1
102
RTVSPost2010Prop30
280
     1
102
RTVSPost2010PropOp30
 70
     1
102
RTVSPost2010Prop31
280
     0
102
RTVSPost2010PropOp31
 70
     1
102
RTVSPost2010Prop32
280
     0
102
RTVSPost2010PropOp32
 70
     1
102
RTVSPost2010Prop33
280
     0
102
RTVSPost2010PropOp33
 70
     1
102
RTVSPost2010Prop34
280
     0
102
RTVSPost2010PropOp34
 70
     1
102
RTVSPost2010Prop35
280
     0
102
RTVSPost2010PropOp35
 70
     1
102
RTVSPost2010Prop36
280
     0
102
RTVSPost2010PropOp36
 70
     1
102
RTVSPost2010Prop37
 90
       50
102
RTVSPost2010PropOp37
 70
     1
102
RTVSPost2010Prop38
140
0.0
102
RTVSPost2010PropOp38
 70
     1
102
RTVSPost2010Prop39
140
1.0
102
RTVSPost2010PropOp39
 70
     1
102
RTVSPost2010Prop40
 90
        0
102
RTVSPost2010PropOp40
 70
     1
102
RTVSPost2010Prop41ColorIndex
 90
       18
102
RTVSPost2010Prop41ColorRGB
 90
        0
102
RTVSPost2010PropOp41
 70
     1
102
RTVSPost2010Prop42
 90
       50
102
RTVSPost2010PropOp42
 70
     1
102
RTVSPost2010Prop43
 90
        3
102
RTVSPost2010PropOp43
 70
     1
102
RTVSPost2010Prop44ColorIndex
 90
        5
102
RTVSPost2010Prop44ColorRGB
 90
      255
102
RTVSPost2010PropOp44
 70
     1
102
RTVSPost2010Prop45
280
     0
102
RTVSPost2010PropOp45
 70
     1
102
RTVSPost2010Prop46
 90
       50
102
RTVSPost2010PropOp46
 70
     1
102
RTVSPost2010Prop47
 90
       50
102
RTVSPost2010PropOp47
 70
     1
102
RTVSPost2010Prop48
 90
       50
102
RTVSPost2010PropOp48
 70
     1
102
RTVSPost2010Prop49
280
     0
102
RTVSPost2010PropOp49
 70
     1
102
RTVSPost2010Prop50
 90
       50
102
RTVSPost2010PropOp50
 70
     1
102
RTVSPost2010Prop51ColorIndex
 90
      256
102
RTVSPost2010Prop51ColorRGB
 90
-16777216
102
RTVSPost2010PropOp51
 70
     0
102
RTVSPost2010Prop52
140
1.0
102
RTVSPost2010PropOp52
 70
     0
102
RTVSPost2010Prop53
 90
        2
102
RTVSPost2010PropOp53
 70
     1
102
RTVSPost2010Prop54
  1
strokes_ogs.tif
102
RTVSPost2010PropOp54
 70
     1
102
RTVSPost2010Prop55
280
     0
102
RTVSPost2010PropOp55
 70
     1
102
RTVSPost2010Prop56
140
1.0
102
RTVSPost2010PropOp56
 70
     1
102
RTVSPost2010Prop57
140
1.0
102
RTVSPost2010PropOp57
 70
     1
102
RTVSPropertyOp0
 70
     1
102
RTVSPropertyOp1
 70
     1
102
RTVSPropertyOp2
 70
     1
102
RTVSPropertyOp3
 70
     1
102
RTVSPropertyOp4
 70
     1
102
RTVSPropertyOp5
 70
     1
102
RTVSPropertyOp6
 70
     1
102
RTVSPropertyOp7
 70
     1
102
RTVSPropertyOp8
 70
     1
102
RTVSPropertyOp9
 70
     1
102
RTVSPropertyOp10
 70
     1
102
RTVSPropertyOp11
 70
     1
102
RTVSPropertyOp12
 70
     1
102
RTVSPropertyOp13
 70
     1
102
RTVSPropertyOp14
 70
     1
102
RTVSPropertyOp15
 70
     1
102
RTVSPropertyOp16
 70
     1
102
RTVSPropertyOp17
 70
     1
102
RTVSPropertyOp18
 70
     1
102
RTVSPropertyOp19
 70
     1
102
RTVSPropertyOp20
 70
     1
102
RTVSPropertyOp21
 70
     1
102
RTVSPropertyOp22
 70
     1
102
RTVSPropertyOp23
 70
     1
102
RTVSPropertyOp24
 70
     1
102
RTVSPropertyOp25
 70
     1
102
RTVSPropertyOp26
 70
     1
102
RTVSPropertyOp27
 70
     1
102
RTVSPropertyOp28
 70
     1
102
RTVSPropertyOp29
 70
     1
102
RTVSPropertyOp30
 70
     1
102
RTVSPropertyOp31
 70
     1
102
RTVSPropertyOp32
 70
     1
102
RTVSPropertyOp33
 70
     1
102
RTVSPropertyOp34
 70
     1
102
RTVSPropertyOp35
 70
     1
102
RTVSPropertyOp36
 70
     1
102
RTVSPropertyOp37
 70
     1
102
RTVSPropertyOp38
 70
     1
102
RTVSPropertyOp39
 70
     1
102
RTVSPropertyOp40
 70
     1
102
RTVSPropertyOp41
 70
     1
102
RTVSPropertyOp42
 70
     1
102
RTVSPropertyOp43
 70
     1
102
RTVSPropertyOp44
 70
     1
102
RTVSPropertyOp45
 70
     1
102
RTVSPropertyOp46
 70
     1
102
RTVSPropertyOp47
 70
     1
102
RTVSPropertyOp48
 70
     1
102
RTVSPropertyOp49
 70
     1
102
RTVSPropertyOp50
 70
     1
102
RTVSPropertyOp51
 70
     0
102
RTVSPropertyOp52
 70
     0
102
RTVSPropertyOp53
 70
     1
102
RTVSPropertyOp54
 70
     1
102
RTVSPropertyOp55
 70
     1
102
RTVSPropertyOp56
 70
     1
102
RTVSPropertyOp57
 70
     1
102
RTVSPropertyOp58
 70
     1
102
RTVSPropertyOp59
 70
     1
102
RTVSPropertyOp60
 70
     1
102
RTVSPropertyOp61
 70
     1
102
RTVSPropertyOp62
 70
     1
  0
XRECORD
  5
742
102
{ACAD_REACTORS
330
741
102
}
330
741
100
AcDbXrecord
280
     1
102
RTVSPost2010Prop28
280
     0
102
RTVSPost2010PropOp28
 70
     1
102
RTVSPost2010Prop29
280
     1
102
RTVSPost2010PropOp29
 70
     1
102
RTVSPost2010Prop30
280
     1
102
RTVSPost2010PropOp30
 70
     1
102
RTVSPost2010Prop31
280
     0
102
RTVSPost2010PropOp31
 70
     1
102
RTVSPost2010Prop32
280
     0
102
RTVSPost2010PropOp32
 70
     1
102
RTVSPost2010Prop33
280
     0
102
RTVSPost2010PropOp33
 70
     1
102
RTVSPost2010Prop34
280
     0
102
RTVSPost2010PropOp34
 70
     1
102
RTVSPost2010Prop35
280
     0
102
RTVSPost2010PropOp35
 70
     1
102
RTVSPost2010Prop36
280
     0
102
RTVSPost2010PropOp36
 70
     1
102
RTVSPost2010Prop37
 90
       50
102
RTVSPost2010PropOp37
 70
     1
102
RTVSPost2010Prop38
140
0.0
102
RTVSPost2010PropOp38
 70
     1
102
RTVSPost2010Prop39
140
1.0
102
RTVSPost2010PropOp39
 70
     1
102
RTVSPost2010Prop40
 90
        0
102
RTVSPost2010PropOp40
 70
     1
102
RTVSPost2010Prop41ColorIndex
 90
       18
102
RTVSPost2010Prop41ColorRGB
 90
        0
102
RTVSPost2010PropOp41
 70
     1
102
RTVSPost2010Prop42
 90
       50
102
RTVSPost2010PropOp42
 70
     1
102
RTVSPost2010Prop43
 90
        3
102
RTVSPost2010PropOp43
 70
     1
102
RTVSPost2010Prop44ColorIndex
 90
        5
102
RTVSPost2010Prop44ColorRGB
 90
      255
102
RTVSPost2010PropOp44
 70
     1
102
RTVSPost2010Prop45
280
     0
102
RTVSPost2010PropOp45
 70
     1
102
RTVSPost2010Prop46
 90
       50
102
RTVSPost2010PropOp46
 70
     1
102
RTVSPost2010Prop47
 90
       50
102
RTVSPost2010PropOp47
 70
     1
102
RTVSPost2010Prop48
 90
       50
102
RTVSPost2010PropOp48
 70
     1
102
RTVSPost2010Prop49
280
     0
102
RTVSPost2010PropOp49
 70
     1
102
RTVSPost2010Prop50
 90
       50
102
RTVSPost2010PropOp50
 70
     1
102
RTVSPost2010Prop51ColorIndex
 90
      256
102
RTVSPost2010Prop51ColorRGB
 90
-16777216
102
RTVSPost2010PropOp51
 70
     0
102
RTVSPost2010Prop52
140
1.0
102
RTVSPost2010PropOp52
 70
     0
102
RTVSPost2010Prop53
 90
        2
102
RTVSPost2010PropOp53
 70
     1
102
RTVSPost2010Prop54
  1
strokes_ogs.tif
102
RTVSPost2010PropOp54
 70
     1
102
RTVSPost2010Prop55
280
     0
102
RTVSPost2010PropOp55
 70
     1
102
RTVSPost2010Prop56
140
1.0
102
RTVSPost2010PropOp56
 70
     1
102
RTVSPost2010Prop57
140
1.0
102
RTVSPost2010PropOp57
 70
     1
102
RTVSPropertyOp0
 70
     1
102
RTVSPropertyOp1
 70
     1
102
RTVSPropertyOp2
 70
     1
102
RTVSPropertyOp3
 70
     1
102
RTVSPropertyOp4
 70
     1
102
RTVSPropertyOp5
 70
     1
102
RTVSPropertyOp6
 70
     1
102
RTVSPropertyOp7
 70
     1
102
RTVSPropertyOp8
 70
     1
102
RTVSPropertyOp9
 70
     1
102
RTVSPropertyOp10
 70
     1
102
RTVSPropertyOp11
 70
     1
102
RTVSPropertyOp12
 70
     1
102
RTVSPropertyOp13
 70
     1
102
RTVSPropertyOp14
 70
     1
102
RTVSPropertyOp15
 70
     1
102
RTVSPropertyOp16
 70
     1
102
RTVSPropertyOp17
 70
     1
102
RTVSPropertyOp18
 70
     1
102
RTVSPropertyOp19
 70
     1
102
RTVSPropertyOp20
 70
     1
102
RTVSPropertyOp21
 70
     1
102
RTVSPropertyOp22
 70
     1
102
RTVSPropertyOp23
 70
     1
102
RTVSPropertyOp24
 70
     1
102
RTVSPropertyOp25
 70
     1
102
RTVSPropertyOp26
 70
     1
102
RTVSPropertyOp27
 70
     1
102
RTVSPropertyOp28
 70
     1
102
RTVSPropertyOp29
 70
     1
102
RTVSPropertyOp30
 70
     1
102
RTVSPropertyOp31
 70
     1
102
RTVSPropertyOp32
 70
     1
102
RTVSPropertyOp33
 70
     1
102
RTVSPropertyOp34
 70
     1
102
RTVSPropertyOp35
 70
     1
102
RTVSPropertyOp36
 70
     1
102
RTVSPropertyOp37
 70
     1
102
RTVSPropertyOp38
 70
     1
102
RTVSPropertyOp39
 70
     1
102
RTVSPropertyOp40
 70
     1
102
RTVSPropertyOp41
 70
     1
102
RTVSPropertyOp42
 70
     1
102
RTVSPropertyOp43
 70
     1
102
RTVSPropertyOp44
 70
     1
102
RTVSPropertyOp45
 70
     1
102
RTVSPropertyOp46
 70
     1
102
RTVSPropertyOp47
 70
     1
102
RTVSPropertyOp48
 70
     1
102
RTVSPropertyOp49
 70
     1
102
RTVSPropertyOp50
 70
     1
102
RTVSPropertyOp51
 70
     0
102
RTVSPropertyOp52
 70
     0
102
RTVSPropertyOp53
 70
     1
102
RTVSPropertyOp54
 70
     1
102
RTVSPropertyOp55
 70
     1
102
RTVSPropertyOp56
 70
     1
102
RTVSPropertyOp57
 70
     1
102
RTVSPropertyOp58
 70
     1
102
RTVSPropertyOp59
 70
     1
102
RTVSPropertyOp60
 70
     1
102
RTVSPropertyOp61
 70
     1
102
RTVSPropertyOp62
 70
     1
  0
XRECORD
  5
734
102
{ACAD_REACTORS
330
733
102
}
330
733
100
AcDbXrecord
280
     1
102
RTVSPost2010Prop28
280
     0
102
RTVSPost2010PropOp28
 70
     1
102
RTVSPost2010Prop29
280
     1
102
RTVSPost2010PropOp29
 70
     1
102
RTVSPost2010Prop30
280
     1
102
RTVSPost2010PropOp30
 70
     1
102
RTVSPost2010Prop31
280
     0
102
RTVSPost2010PropOp31
 70
     1
102
RTVSPost2010Prop32
280
     0
102
RTVSPost2010PropOp32
 70
     1
102
RTVSPost2010Prop33
280
     0
102
RTVSPost2010PropOp33
 70
     1
102
RTVSPost2010Prop34
280
     0
102
RTVSPost2010PropOp34
 70
     1
102
RTVSPost2010Prop35
280
     0
102
RTVSPost2010PropOp35
 70
     1
102
RTVSPost2010Prop36
280
     0
102
RTVSPost2010PropOp36
 70
     1
102
RTVSPost2010Prop37
 90
       50
102
RTVSPost2010PropOp37
 70
     1
102
RTVSPost2010Prop38
140
0.0
102
RTVSPost2010PropOp38
 70
     1
102
RTVSPost2010Prop39
140
1.0
102
RTVSPost2010PropOp39
 70
     1
102
RTVSPost2010Prop40
 90
        0
102
RTVSPost2010PropOp40
 70
     1
102
RTVSPost2010Prop41ColorIndex
 90
       18
102
RTVSPost2010Prop41ColorRGB
 90
        0
102
RTVSPost2010PropOp41
 70
     1
102
RTVSPost2010Prop42
 90
       50
102
RTVSPost2010PropOp42
 70
     1
102
RTVSPost2010Prop43
 90
        3
102
RTVSPost2010PropOp43
 70
     1
102
RTVSPost2010Prop44ColorIndex
 90
        5
102
RTVSPost2010Prop44ColorRGB
 90
      255
102
RTVSPost2010PropOp44
 70
     1
102
RTVSPost2010Prop45
280
     0
102
RTVSPost2010PropOp45
 70
     1
102
RTVSPost2010Prop46
 90
       50
102
RTVSPost2010PropOp46
 70
     1
102
RTVSPost2010Prop47
 90
       50
102
RTVSPost2010PropOp47
 70
     1
102
RTVSPost2010Prop48
 90
       50
102
RTVSPost2010PropOp48
 70
     1
102
RTVSPost2010Prop49
280
     0
102
RTVSPost2010PropOp49
 70
     1
102
RTVSPost2010Prop50
 90
       50
102
RTVSPost2010PropOp50
 70
     1
102
RTVSPost2010Prop51ColorIndex
 90
      256
102
RTVSPost2010Prop51ColorRGB
 90
-16777216
102
RTVSPost2010PropOp51
 70
     0
102
RTVSPost2010Prop52
140
1.0
102
RTVSPost2010PropOp52
 70
     0
102
RTVSPost2010Prop53
 90
        2
102
RTVSPost2010PropOp53
 70
     1
102
RTVSPost2010Prop54
  1
strokes_ogs.tif
102
RTVSPost2010PropOp54
 70
     1
102
RTVSPost2010Prop55
280
     0
102
RTVSPost2010PropOp55
 70
     1
102
RTVSPost2010Prop56
140
1.0
102
RTVSPost2010PropOp56
 70
     1
102
RTVSPost2010Prop57
140
1.0
102
RTVSPost2010PropOp57
 70
     1
102
RTVSPropertyOp0
 70
     1
102
RTVSPropertyOp1
 70
     1
102
RTVSPropertyOp2
 70
     1
102
RTVSPropertyOp3
 70
     1
102
RTVSPropertyOp4
 70
     1
102
RTVSPropertyOp5
 70
     1
102
RTVSPropertyOp6
 70
     1
102
RTVSPropertyOp7
 70
     1
102
RTVSPropertyOp8
 70
     1
102
RTVSPropertyOp9
 70
     1
102
RTVSPropertyOp10
 70
     1
102
RTVSPropertyOp11
 70
     1
102
RTVSPropertyOp12
 70
     1
102
RTVSPropertyOp13
 70
     1
102
RTVSPropertyOp14
 70
     1
102
RTVSPropertyOp15
 70
     1
102
RTVSPropertyOp16
 70
     1
102
RTVSPropertyOp17
 70
     1
102
RTVSPropertyOp18
 70
     1
102
RTVSPropertyOp19
 70
     1
102
RTVSPropertyOp20
 70
     1
102
RTVSPropertyOp21
 70
     1
102
RTVSPropertyOp22
 70
     1
102
RTVSPropertyOp23
 70
     1
102
RTVSPropertyOp24
 70
     1
102
RTVSPropertyOp25
 70
     1
102
RTVSPropertyOp26
 70
     1
102
RTVSPropertyOp27
 70
     1
102
RTVSPropertyOp28
 70
     1
102
RTVSPropertyOp29
 70
     1
102
RTVSPropertyOp30
 70
     1
102
RTVSPropertyOp31
 70
     1
102
RTVSPropertyOp32
 70
     1
102
RTVSPropertyOp33
 70
     1
102
RTVSPropertyOp34
 70
     1
102
RTVSPropertyOp35
 70
     1
102
RTVSPropertyOp36
 70
     1
102
RTVSPropertyOp37
 70
     1
102
RTVSPropertyOp38
 70
     1
102
RTVSPropertyOp39
 70
     1
102
RTVSPropertyOp40
 70
     1
102
RTVSPropertyOp41
 70
     1
102
RTVSPropertyOp42
 70
     1
102
RTVSPropertyOp43
 70
     1
102
RTVSPropertyOp44
 70
     1
102
RTVSPropertyOp45
 70
     1
102
RTVSPropertyOp46
 70
     1
102
RTVSPropertyOp47
 70
     1
102
RTVSPropertyOp48
 70
     1
102
RTVSPropertyOp49
 70
     1
102
RTVSPropertyOp50
 70
     1
102
RTVSPropertyOp51
 70
     0
102
RTVSPropertyOp52
 70
     0
102
RTVSPropertyOp53
 70
     1
102
RTVSPropertyOp54
 70
     1
102
RTVSPropertyOp55
 70
     1
102
RTVSPropertyOp56
 70
     1
102
RTVSPropertyOp57
 70
     1
102
RTVSPropertyOp58
 70
     1
102
RTVSPropertyOp59
 70
     1
102
RTVSPropertyOp60
 70
     1
102
RTVSPropertyOp61
 70
     1
102
RTVSPropertyOp62
 70
     1
  0
XRECORD
  5
754
102
{ACAD_REACTORS
330
753
102
}
330
753
100
AcDbXrecord
280
     1
102
RTVSPost2010Prop28
280
     0
102
RTVSPost2010PropOp28
 70
     1
102
RTVSPost2010Prop29
280
     1
102
RTVSPost2010PropOp29
 70
     1
102
RTVSPost2010Prop30
280
     1
102
RTVSPost2010PropOp30
 70
     1
102
RTVSPost2010Prop31
280
     0
102
RTVSPost2010PropOp31
 70
     1
102
RTVSPost2010Prop32
280
     0
102
RTVSPost2010PropOp32
 70
     1
102
RTVSPost2010Prop33
280
     0
102
RTVSPost2010PropOp33
 70
     1
102
RTVSPost2010Prop34
280
     0
102
RTVSPost2010PropOp34
 70
     1
102
RTVSPost2010Prop35
280
     0
102
RTVSPost2010PropOp35
 70
     1
102
RTVSPost2010Prop36
280
     0
102
RTVSPost2010PropOp36
 70
     1
102
RTVSPost2010Prop37
 90
       50
102
RTVSPost2010PropOp37
 70
     1
102
RTVSPost2010Prop38
140
0.0
102
RTVSPost2010PropOp38
 70
     1
102
RTVSPost2010Prop39
140
1.0
102
RTVSPost2010PropOp39
 70
     1
102
RTVSPost2010Prop40
 90
        0
102
RTVSPost2010PropOp40
 70
     1
102
RTVSPost2010Prop41ColorIndex
 90
       18
102
RTVSPost2010Prop41ColorRGB
 90
        0
102
RTVSPost2010PropOp41
 70
     1
102
RTVSPost2010Prop42
 90
       50
102
RTVSPost2010PropOp42
 70
     1
102
RTVSPost2010Prop43
 90
        3
102
RTVSPost2010PropOp43
 70
     1
102
RTVSPost2010Prop44ColorIndex
 90
        5
102
RTVSPost2010Prop44ColorRGB
 90
      255
102
RTVSPost2010PropOp44
 70
     1
102
RTVSPost2010Prop45
280
     0
102
RTVSPost2010PropOp45
 70
     1
102
RTVSPost2010Prop46
 90
       50
102
RTVSPost2010PropOp46
 70
     1
102
RTVSPost2010Prop47
 90
       50
102
RTVSPost2010PropOp47
 70
     1
102
RTVSPost2010Prop48
 90
       50
102
RTVSPost2010PropOp48
 70
     1
102
RTVSPost2010Prop49
280
     0
102
RTVSPost2010PropOp49
 70
     1
102
RTVSPost2010Prop50
 90
       50
102
RTVSPost2010PropOp50
 70
     1
102
RTVSPost2010Prop51ColorIndex
 90
      256
102
RTVSPost2010Prop51ColorRGB
 90
-16777216
102
RTVSPost2010PropOp51
 70
     0
102
RTVSPost2010Prop52
140
1.0
102
RTVSPost2010PropOp52
 70
     0
102
RTVSPost2010Prop53
 90
        2
102
RTVSPost2010PropOp53
 70
     1
102
RTVSPost2010Prop54
  1
strokes_ogs.tif
102
RTVSPost2010PropOp54
 70
     1
102
RTVSPost2010Prop55
280
     0
102
RTVSPost2010PropOp55
 70
     1
102
RTVSPost2010Prop56
140
1.0
102
RTVSPost2010PropOp56
 70
     1
102
RTVSPost2010Prop57
140
1.0
102
RTVSPost2010PropOp57
 70
     1
102
RTVSPropertyOp0
 70
     1
102
RTVSPropertyOp1
 70
     1
102
RTVSPropertyOp2
 70
     1
102
RTVSPropertyOp3
 70
     1
102
RTVSPropertyOp4
 70
     1
102
RTVSPropertyOp5
 70
     1
102
RTVSPropertyOp6
 70
     1
102
RTVSPropertyOp7
 70
     1
102
RTVSPropertyOp8
 70
     1
102
RTVSPropertyOp9
 70
     1
102
RTVSPropertyOp10
 70
     1
102
RTVSPropertyOp11
 70
     1
102
RTVSPropertyOp12
 70
     1
102
RTVSPropertyOp13
 70
     1
102
RTVSPropertyOp14
 70
     1
102
RTVSPropertyOp15
 70
     1
102
RTVSPropertyOp16
 70
     1
102
RTVSPropertyOp17
 70
     1
102
RTVSPropertyOp18
 70
     1
102
RTVSPropertyOp19
 70
     1
102
RTVSPropertyOp20
 70
     1
102
RTVSPropertyOp21
 70
     1
102
RTVSPropertyOp22
 70
     1
102
RTVSPropertyOp23
 70
     1
102
RTVSPropertyOp24
 70
     1
102
RTVSPropertyOp25
 70
     1
102
RTVSPropertyOp26
 70
     1
102
RTVSPropertyOp27
 70
     1
102
RTVSPropertyOp28
 70
     1
102
RTVSPropertyOp29
 70
     1
102
RTVSPropertyOp30
 70
     1
102
RTVSPropertyOp31
 70
     1
102
RTVSPropertyOp32
 70
     1
102
RTVSPropertyOp33
 70
     1
102
RTVSPropertyOp34
 70
     1
102
RTVSPropertyOp35
 70
     1
102
RTVSPropertyOp36
 70
     1
102
RTVSPropertyOp37
 70
     1
102
RTVSPropertyOp38
 70
     1
102
RTVSPropertyOp39
 70
     1
102
RTVSPropertyOp40
 70
     1
102
RTVSPropertyOp41
 70
     1
102
RTVSPropertyOp42
 70
     1
102
RTVSPropertyOp43
 70
     1
102
RTVSPropertyOp44
 70
     1
102
RTVSPropertyOp45
 70
     1
102
RTVSPropertyOp46
 70
     1
102
RTVSPropertyOp47
 70
     1
102
RTVSPropertyOp48
 70
     1
102
RTVSPropertyOp49
 70
     1
102
RTVSPropertyOp50
 70
     1
102
RTVSPropertyOp51
 70
     0
102
RTVSPropertyOp52
 70
     0
102
RTVSPropertyOp53
 70
     1
102
RTVSPropertyOp54
 70
     1
102
RTVSPropertyOp55
 70
     1
102
RTVSPropertyOp56
 70
     1
102
RTVSPropertyOp57
 70
     1
102
RTVSPropertyOp58
 70
     1
102
RTVSPropertyOp59
 70
     1
102
RTVSPropertyOp60
 70
     1
102
RTVSPropertyOp61
 70
     1
102
RTVSPropertyOp62
 70
     1
  0
ENDSEC
  0
EOF
